Jet - Last Chance Chords & Tabs

 

Last Chance Chords & Tabs

Jet Chords & Tabs

Version: 1 Type: Tab 0 ratings
1 star 2 stars 3 stars 4 stars 5 stars
comments

Last Chance Tab

I noticed that no one has tabbed this song! (shame on you!)LOL.
Anywayz,errr it is hope u like it. If u hav ne probs e-mail in_your_world@hotmail.co.uk
my other e-mail is rhcp_3454@hotmail.com but i dont think iv used it in months!

(jets album is 1 of the greatest albums of all time!)

Tuning:Standard


Intro:
Play a few times you'll have to listen to the cd to get the timing
|-7---------------|
|-7---------------|
|-8---------------|
|-9---------------|
|-9---------------|
|-7---------------|


Guitar 2
|------------------|
|------------------|
|-11---------------|
|-9----------------|
|------------------|
|------------------|

Then:

|-0---------------------0-------------------------------------------------|
|-0---------------------0-------------------------------------------------|
|-0---------------------0---7---------------------------------------------|
|-2---5---7---5---7-7---2---7---7---5---7-7-------------------------------|
|-2---5---7---5---7-7---2---5---7---5---7-7-------------------------------|
|-0---3---5---3-/-5-5---0-------5---3-/-5-5-------------------------------|
Keep playing this for the verse, (you might hav2listen2the cd2get the timing

Chorus:

|-------------------------------------------------------------------------|
|-------------------------------------------------------------------------|
|-------------------------------------------------------------------------|
|-9-9--7---9-9------------------------------------------------------------|
|-9-9--7---9-9------------------------------------------------------------|
|-7-7--5-/-7-7------------------------------------------------------------|
"Last chance honey"  (repeat X2)


|-------------------------------------------------------------------------|
|-------------------------------------------------------------------------|
|------------7-7----------------------------------------------------------|
|-5-5--5--5--7-7--7-7-----------------------------------------------------|
|-5-5--5--5--5-5--7-7-----------------------------------------------------|
|-3-3--0--3-------5-5-----------------------------------------------------|
"Last chance honey"

[ Tab from: http://www.guitartabs.cc/tabs/j/jet/last_chance_tab.html ]
|-------------------------------------------------------------------------|
|-------------------------------------------------------------------------|
|-------------------------------------------------------------------------|
|-9-9--7---9-9------------------------------------------------------------|
|-9-9--7---9-9------------------------------------------------------------|
|-7-7--5-/-7-7------------------------------------------------------------|
"Last chance honey"

|-------------------------------------------------------------------------|
|-------------------------------------------------------------------------|
|------------7------------------------------------------------------------|
|-5-5--5--5--7--7--5---7--------------------------------------------------|
|-5-5--5--5--5--7--5---7--------------------------------------------------|
|-3-3--0--3-----5--3-/-5--------------------------------------------------|
"Last chance honey... Whoo!"

Back to verse

Solo:

|-7--7--------------7--7--------------------------------------------------|
|-7--7--------------7--7--------------------------------------------------|
|-8--7-h-9 bend up--8--7-h-9^---------------------------------------------|
|-9-----------------9-----------------------------------------------------|
|-9-----------------9-----------------------------------------------------|
|-7-----------------7-----------------------------------------------------|

Outro:

|-------------------------------------------------------------------------|
|-------------------------------------------------------------------------|
|------------7-7----------------------------------------------------------|
|-5-5--5--5--7-7--7-7-----------------------------------------------------|
|-5-5--5--5--5-5--7-7-----------------------------------------------------|
|-3-3--0--3-------5-5-----------------------------------------------------|
"Last chance honey"



|-7-7-7-7-------------7-7-7-----------------------------------------------|
|-7-7-7-7-------------7-7-7-----------------------------------------------|
|-8-8-8-8-------------8-8-8-----------------------------------------------|
|-9-9-9-9-------------9-9-9-----------------------------------------------|
|-9-9-9-9-------------9-9-9-----------------------------------------------|
|-7-7-7-7-------------7-7-7-----------------------------------------------|
"Last chance honey"

And there you have it, I'm not sure how good its gonna b coz i had2rush it a
bit-just bout2go out so i had2rush but nothtings missin and theres no wrong
numbers or netin so enjoy, if u do hav ne probs u no where2find me! C YA!!
Comments