Jet - Hold On Chords & Tabs

 

Hold On Chords & Tabs

Jet Chords & Tabs

Version: 2 Type: Tab 0 ratings
1 star 2 stars 3 stars 4 stars 5 stars
comments

Hold On Tab

   
Tabbed By: Don Hingco (Drop_D@yahoo.com)
b=Bend
rb=Release bend
hb=Half bend
p=Pull-off
h=Hammer-on
/\=Slide up/down
~=let ring
Standard Tuning (eBGDAE)

Intro (G chord over intro lead riff)
e-----7~~------7---5---5---3~~--------10-------------------|
B------------------------3-------10hb-----10rb--10p8---8~~-|
G-6h7------6h7---7---7-------------------------------9-----|
D----------------------------------------------------------|
A----------------------------------------------------------|
E----------------------------------------------------------|

Verse: G-D-Em-D (2x) (on the third time, end on C)
e-3--2--0--0--2--|
B-3--3--0--0--3--|
G-0--2--0--0--2--|
D-0--0--2--2--0--|
A-2-----2--2-----|
E-3-----0--0-----|

Pre-chorus: Em-Bm-Em-C
e-0--2--0--0--|
B-0--3--0--1--|
G-0--4--0--0--|
D-2--4--2--2--|
A-2--2--2--3--|
E-0-----0--0--|

ChorusI: G5-D9------------------|Em (2x), then C-D
e-x--x--x-             e-0--2---|
B-x--3--x-             B-1--3---|
G-x--2--x-             G-0--2---|
D-x--0--2-             D-2--0---|
A-5-----2-             A-3------|
E-3-----0-             E-0------|
[ Tab from: http://www.guitartabs.cc/tabs/j/jet/hold_on_tab_ver_2.html ]
Interlude (G over interlude  lead riff)
e-----7~~------8-----7~~------7---5---3~~-|
B-----------------------------------3-----|
G-6h7------7h9---9p7------6h7---7---------|
D-----------------------------------------|
A-----------------------------------------|
E-----------------------------------------|

Verse 2: G-D-Em-C (2x)
Repeat pre-chorus (1x)
Repeat chorusI (1x) then on 2nd time, replace Em with C, then end on C7

ChorusII: G-D-G-D-Em-Bm-Em-Bm-C-C7 (2x)

Do this lead riff over the second time you do chorusII
Guitar II:
e-------10-------------------10------------|
B-10/12----10brb--8~~--10/12----10brb------|
G-------------------------------------12~~-|
D------------------------------------------|
A------------------------------------------|
E------------------------------------------|
(listen to the song for the variations in this lead riff)

repeat pre-chorus (1x)
then chorusI (3x)(on the third time, replace Em with C then end on D)
repeat interlude lead riff (G over lead riff 'til end)

Chords used:
e-3--2--0--2--0--0--|
B-3--3--0--3--1--1--|
G-0--2--0--4--0--3--|
D-0--0--2--4--2--2--|
A-2-----2--2--3--3--|
E-3-----0-----0--0--|

that's about it! this is my first tab, and it's pretty accurate. well, i guess so. for 
comments/suggestions/corrections, e-mail me at drop_d@yahoo.com. PEACE!
Comments