Jet - Hold On Chords & Tabs

 

Hold On Chords & Tabs

Jet Chords & Tabs

Version: 1 Type: Tab 0 ratings
1 star 2 stars 3 stars 4 stars 5 stars
comments

Hold On Tab

   
JET - HOLD ON

Intro

    E ---------7---------7-------5-    -------10---------------------|
    B -----------------------------    --10b---------10r--8----------|
    G --6-7-----------7-------5----    -----------------------9------|
    D -----------------------------    ------------------------------|
    A -----------------------------    ------------------------------|
    E -----------------------------    ------------------------------|

                                    G                 G


 G                          D
  You tried so hard to be someone

                        Em                         Em
  That you forget who you are
D G                           D
  You tried to fill some emptiness
                           Em                     Em
  Till all you had spilled over
D G                         D
  Now everything's so far away
                               Em
  That you don't know where you are
  C
  You are

Em                  D
  When all that you wanted
Em                 C
  And all that you have

  Don't seem so much
G      D          Em
  For you to hold on to
G      D          Em
  For you to hold on to
C              D
  For you to belong to

E -------7-----------8---------------7------------7--------5---|
B--------------------------------------------------------------|
G --6-7--------7-9---------9-7-----------------7--------5------|
D -------------------------------------------------------------|
A -------------------------------------------------------------|
E -------------------------------------------------------------|
   G

[ Tab from: http://www.guitartabs.cc/tabs/j/jet/hold_on_tab.html ]
G                        D
 When it's hard to be yourself
                         Em                 C
 It's not to be someone else
G                         D
Still everything's so far away
                          Em
That you forget where you are
C
You are


G                             D
When all that you wanted
G                          C
And all that you have

Don't seem so much
G       D          Em
  For you to hold on to
G       D          C          C   C   C   C   C   C
  For you to hold on to


Repeat
                                Riff During This Part...Repeat
G  D    G
   Hold on                     E ----------10--------------------|
 D    Em                       B -----10b-------10r----8---------|
 Hold on                       G --------------------------------|
 Bm   Em                       D --------------------------------|
 Hold on                       A --------------------------------|
 Bm   C    C   C   C   C       E --------------------------------|
 Hold on


G                  D
 When all that you wanted
G                 C
 And all that you have

 Don't seem so much
G    D           Em
 For you to hold on to
G    D           Em
 For you to hold on to
G    D           Em
 For you to hold on to
C             D
 For you to belong to

Outro


E ------7------------8--------------7-----------7--------5-------|
B ---------------------------------------------------------------|
G -6-7--------7-9---------9-7-----------------7--------5---------|
D ---------------------------------------------------------------|
A ---------------------------------------------------------------|
E ---------------------------------------------------------------|


G
Comments