Jet - Hey Kids Chords & Tabs

 

Hey Kids Chords & Tabs

Jet Chords & Tabs

Version: 1 Type: Tab 0 ratings
1 star 2 stars 3 stars 4 stars 5 stars
comments

Hey Kids Tab

   
 this is the hey kids tab...i havent seen anyone with the right chords yet so i'll help you out...

 INTRO:

 |--------------------------------------|
 |--------------------------------------|
 |------2-------5p2--------2------------|
 |----2---2---2-----5----2---2---2------|
 |--0-------0----------0-------0--------|
 |---------------------------------3-5--|

 CHORDS PLAYED AFTER: A G D A

   A             G                         D                       A
 Hey kids, you did it all yourselves, you'll never change the world, so what you think about that 
 Hey dad, the suit is on your back, so take your boots off my neck,and get back to your money stack

 INTERLUDE:  A C GDG A

 VERSE:
   A         C                          A      A         C         D
 Hey kids, fake it, I saw you wearing flares, Turned to that sh**, used to
        A
 have long hair

 VERSE:
   A             G                 D                     A
 Hey old man, remember Vietnam, you hated Vietnam, but you dig Afghanistan.

 Hey kids, you did it all yourselves, you can't turn around now, no no now go and play with someone else

 INTERLUDE
[ Tab from: http://www.guitartabs.cc/tabs/j/jet/hey_kids_tab.html ]
 VERSE:
   A         G            D            A
 Hey kids, fake it, we'll all see you in hell

 CHORUS:
  A         C         G          D      x4
 Woo Hoo...

 SOLO:

 |---------------------|
 |---------------------|
 |------2-------5p2----|
 |----2---2---2-----5--|
 |--0-------0----------|
 |---------------------| x2

 |---------------------|
 |---------------------|
 |----22-0-22----5p2---|
 |----22-0-22--------5-|
 |--0--------(0)-------|
 |---------------------| x4

 |---------------8-----|
 |-88--88--8--10-------|
 |-77--77--------------|
 |---------------------|
 |---------------------|
 |---------------------| x4  (last riff plays in background)

 |---------------------|
 |---------------------|
 |----22-0-22----5p2---|
 |----22-0-22--------5-|
 |--0--------(0)-------|
 |---------------------| x8

 |---------------------|         G--2---|
 |---------------------|         D--2---|
 |-2--2--2--2-2--------|         A--0---|
 |-2--2--2--2-2--------|  end on E------|
 |-0--0--0--0-0--------|
 |--------------3------| x4 (this plays over the top of the last riff the four times)
 
 CHORUS:
  A         C         G          D      x4
 Woo Hoo...

 END ON D...


  *well theres my tab...hope u enjoy it.....JJ
Comments