Jet - Get What You Need Chords & Tabs

 

Get What You Need Chords & Tabs

Jet Chords & Tabs

Version: 1 Type: Tab 0 ratings
1 star 2 stars 3 stars 4 stars 5 stars
comments

Get What You Need Tab

Artist: Jet
Song: Get What You Need
Album: Get Born (Track 5)

Transcribed by Paul @ OzTabs (oztabs@bigpond.com)
www.ozmusic-central.com.au/oztabs 

Here's a tab for the main rhythm guitar - I've chosen
to tab this in drop D - I find it a lot easier to
play it in Drop D so you don't have to stretch your
fingers too far! Comments, corrections, lead additions
are all welcome.

Tuning: DADGBE (low to high)

INTRO / VERSES:
E-|--------------------------|-
B-|--------------------------|-
G-|--------------------------|-
D-|-11--11-11-11---11--11-11-|-
A-|-11--13-13-11---14--13-13-|-
D-|-11--11-11-11---11--11-11-|-

PRE CHORUS:
E-|--------------------------------------------------------------------|-
B-|--------------------------------------------------------------------|-
G-|--------------------------------------------------------------------|-
D-|-11--11-9---4-2-4-2-------11--11-9---4-4-4--6-6-4h6-6--4h6-6--6-6-6-|-
A-|-11--11-9---4-2-4-2-(x3)--11--11-9---4-4-4--6-6-4h6-6--4h6-6--6-6-6-|-
D-|-11--11-9---4-2-4-2-------11--11-9---4-4-4--6-6-4h6-6--4h6-6--6-6-6-|-
[ Tab from: http://www.guitartabs.cc/tabs/j/jet/get_what_you_need_tab.html ]
CHORUS:
E-|-------------------------------------------------------------------------|-
B-|-------------------------------------------------------------------------|-
G-|-------------------------------------------------------------------------|-
D-|-11-11-9-11-9--4-4-2-4-2-------11--11-9---4-4-4--6-6-4h6-6--4h6-6--6-6-6-|-
A-|-11-11-9-11-9--4-4-2-4-2-(x3)--11--11-9---4-4-4--6-6-4h6-6--4h6-6--6-6-6-|-
D-|-11-11-9-11-9--4-4-2-4-2-------11--11-9---4-4-4--6-6-4h6-6--4h6-6--6-6-6-|-

SOLO OVER THIS:
E-|---------------------------------------------------------------|-
B-|---------------------------------------------------------------|-
G-|---------------------------------------------------------------|-
D-|-11-11-11-11----11-11-11-11----11-11-11-11--------4-4-4--7-7-7-|-
A-|-11-11-13-11----11-11-13-11----11-11-13-11--------4-4-4--7-7-7-|-
D-|-11-11-11-11----11-11-11-11----11-11-11-11----2-3-4-4-4--7-7-7-|-

OUTRO:
E-|--------------------------------------------------------------------------------------|-
B-|--------------------------------------------------------------------------------------|-
G-|-------------------------------------------------------------------------------6-6--9-|-
D-|-11-11-9-11-9--4-4-2-4-2-------11--11-9---4-4-4--6-6-4h6-6--4h6-6--6-6-6-------6-6--9-|-
A-|-11-11-9-11-9--4-4-2-4-2-(x3)--11--11-9---4-4-4--6-6-4h6-6--4h6-6--6-6-6-(etc)-4-4--7-|-
D-|-11-11-9-11-9--4-4-2-4-2-------11--11-9---4-4-4--6-6-4h6-6--4h6-6--6-6-6--------------|-
Comments