Jet - Get What You Need Chords & Tabs

 

Get What You Need Chords & Tabs

Jet Chords & Tabs

Version: 1 Type: Bass Tab 0 ratings
1 star 2 stars 3 stars 4 stars 5 stars
comments

Get What You Need Bass Tab

INTRO (0:12)  
G|------------------------------|
D|*----------------------------*|
A|*----------------------------*|
E|-21*-19-16-14-12--------------|

VERSE (0:14) 6x             2x              (1st)    (2nd)   ^ Play 13x 
G|-----------------|------------------------|--------|-------------|
D|-----------------|------------------------|--------|-------------|
A|-----------------|------------------------|9-7-9-7-|9-9-9-11^----|
E|9-9-7-9--0-2--2-0|9--9-7--2--0-2-0--9--9-7|--------|-------------|


  
  SOLO 2x (0:53) *the second time start with (7)*
G|-------------------------------------------------------|
D|-------------------------------------------------------|
A|------------------------------------------7-9-9-7-9-7--|
E|-(7)-9-9-7-9-7--0-2-2-0-2-0--7-9-9-7-9-7---------------|


               2X                           (1st)        (2nd)
G|-------------------------------------|-------------|--------------|
D|-------------------------------------|-------------|--------------|
A|-------------------------------------|-7-9-9-7-9-7-|-9-9-9-11^----|
E|-9-9-7-9-7--0-2-2-0-2-0--7-9-9-7-9-7-|-------------|--------------|


G|------------------------------------------------|
D|---------------------11-------------------------|
A|----11h9h11-----9h11----11----------------------|
E|-9----------9--------------9-----21-19-16-9-----|


G|--------------------------------------|
D|--------------------------------------|
A|----------------------------7-9--9-7--|
E|-9-9-7-9--0-2-2-0--9-9-7-9------------|
[ Tab from: http://www.guitartabs.cc/tabs/j/jet/get_what_you_need_btab.html ]
                                              ^ Play Approx. 13 times
G|--------------------------------------------------------------------|
D|--------------------------------------------------------------------|
A|-------------------------9-7-9-7--------------------------9-9-9-11^-|
E|9--9-7--2-0-2-0--9--9-7----------9--9-7--2-0-2-0--9--9-7------------|

 PLAY 2X  * Second time around start with (7) * 
G|---------------------------------------------------------|
D|---------------------------------------------------------|
A|--------------------------------------------7-9-9-7-9-7--|
E|--(7)--9-9-7-9-7--0-2-2-0-2-0--7-9-9-7-9-7---------------|

              2X                           (1st)         (2nd)
G|-------------------------------------|-------------|------------|
D|-------------------------------------|-------------|------------|
A|-------------------------------------|-7-9-9-7-9-7-|-9-9-9-11^--|
E|-9-9-7-9-7--0-2-2-0-2-0--7-9-9-7-9-7-|-------------|------------|

                2x                             3x
G|----------------------------------------|-----------|---------------|     
D|----------------------------------------|11-9-------|---------------|     
A|----------------------------------------|-----11-9--|---------------|     
E|9-9-7-9--9-9-7-9--9-9-7-9--0-1-2--2-4-5-|----------9|0-1-2--2-4-5-5-|     
                                          |-------------x2------------|

                    2x
G|-------------------------------------|-------------|
D|-------------------------------------|-------------|
A|-------------------------------------|-7-9-9-7-9-7-|
E|-9-9-7-9-7--0-2-2-0-2-0--7-9-9-7-9-7-|-------------|

between < > play until you hear different note  6x
G|--------------------------------------------|--------------|-------------|
D|---------------------------9-----11-9-------|--------------|-------------|
A|-9-9-9-<11>-then--9-11-11-----11------11-9--|-11-9---------|-------------|
E|--------------------------------------------|------11------|-9--9--0~----|
Comments