Jet - Get Me Outta Here Chords & Tabs

 

Get Me Outta Here Chords & Tabs

Jet Chords & Tabs

Version: 1 Type: Tab 0 ratings
1 star 2 stars 3 stars 4 stars 5 stars
comments

Get Me Outta Here Tab

Here's the intro for Jet's "Get Me Outta Here".
[ Tab from: http://www.guitartabs.cc/tabs/j/jet/get_me_outta_here_tab.html ]
Intro: Guitar 1
E---------------------------------|
B---------------------------------|
G---------------------------------|
D---7-757-70-5-77-----------------|
A---------------------------------|
E---------------------------------|

And, this is what Guitar 2 does when the drums kick in.

E--0----------|
B--0----------|
G--0----------|
D--0----------|
A--0----------|
E--0----------|

And, that's pretty much it.

Have fun!
Comments