Jet - Come Around Again Chords & Tabs

 

Come Around Again Chords & Tabs

Jet Chords & Tabs

Version: 2 Type: Tab 0 ratings
1 star 2 stars 3 stars 4 stars 5 stars
comments

Come Around Again Tab

   
Intro:
e-----------------------------|          Gsus4?: e-3  Csus7?:e-3-|
B-----------------------------|                  B-3         B-3-|
G-------0----0------0---------|x5                G-0         G-0-|
D-----0-----0-0h2-0-----------|                  D-0         D-2-|
A-0h2----0h2-------2----------|                  A-2         A-3-|
E-----------------------------|                  E-3         E-0-|
                  N/C
Verse 1: Yeah I'm waiting, For you it's been so long
Gsus4 G                             D Lead 1
Yeah I'm waiting, For you it's been so long
                             C
Yeah I'm sad when I'm on my own
                    Lead 3 G  D   C
They said, it takes a long, long timne
                        lead 4 G    D  C  Csus7
If it's not too much, could you hear me now
        D
Chorus:You promised me, you'd always be, when I wake up please come around
[ Tab from: http://www.guitartabs.cc/tabs/j/jet/come_around_again_tab_ver_2.html ]
again x2
 G           G  D  C Csus7
Come around again, Yeah
           G                        D           Lead 1
Verse 2: Yeah i'm waiting, for you it's been so long
Lead 5                       C
      Yeah I'm sad when I'm alone
                        G     D   C
They said, it takes a long, long time
C                 D          Lead 4 G   D  C  Csus7
If it's not too much, could you hear me now (high lead)
D                                                                     D
You promised me, you'd always be, when I wake up please come around again
G D C   Am                                            D
       Yeah there's something I was thinking about, get it out of my head
Am                               D
Something that's kicking around, something you said
D                         G                        D
I don't know when I'm right, I only know when i'm wrong
                  Am                         C
So when you gonna live some life to show it off, and keep the lights from
                    D
going off, cause I can't see... Yeah
   G                                       D
Cause I'm waiting, For you it's been so long
                           C
Yeah I'm lost but I'm at home
                       G     D   C  Csus7
They said,it takes a long, long time
                                  G   D  C  Csus7
If it's not too much, could you hear me now
GDC Csus7   G             D                  C
          Come around again, come around again,
                     G
please come around again

Lead Background: Lead 1        b=bend
e-------10----------------------|             r=release
B-10--12--12-10-----------------|
G---------------12--------------|
D-------------------------------|
A-------------------------------|
E-------------------------------|

Lead 2
e---------------|
B-10--12br------|
G---------12-12-|
D---------------|
A---------------|
E---------------|

Lead 3
e-7--10-7-------|
B--------10-8-8-|
G---------------|
D---------------|
A---------------|
E---------------|

Lead 4
e-7br-5--|
B------8-|
G--------|
D--------|
A--------|
E--------|

Lead 5
e-------10---------|
B-10--12--12-10-13-|
G------------------|
D------------------|
A------------------|
E------------------|

Lead 6
e---------------|
B-10-12-13------|
G---------12-12-|
D---------------|
A---------------|
E---------------|

High Lead
e-10-12-15--12-10-12-|
B--------------------|
G--------------------|
D--------------------|
A--------------------|
E--------------------|


this song has many different sounds to it. there's the rythym guitar which you don't 
too much in this song. in the backround there's many lead parts playing in the backround 
i've labelled above the lyrics. there's some organ in the backround which makes this song kickin'.
Tabbed by carsred
Comments