Jet - Cold Hard Bitch Chords & Tabs

 

Cold Hard Bitch Chords & Tabs

Jet Chords & Tabs

Version: 3 Type: Tab 0 ratings
1 star 2 stars 3 stars 4 stars 5 stars
comments

Cold Hard Bitch Tab

Jet - Cold Hard Bitch
Tabbed by: Kurtis Martin

Intro riffs
----guitar 1----------|----guitar 2---------------------
----------------------|---------------------------------
----------------------|---------------------------------
-7--------------------|---7-----7-7---------------------
----------------------|---5--7--5-5--7-7----------------
---5-5-5-5-5-5-etc.---|------5-------5-5----------------

then enter bass
then enter drums

Second Intro Riff	     
-------------------------------------------------------
-----------------------------3--3--3-------------------
-----------------------------0--0--0-------------------
-5-4-2-4--5-4-2-4-2-4-xfour--0--0--0etc.---------------
-0-0-0-0--0-0-0-0-0-0--------2--2--2-------------------
-----------------------------3--3--3-------------------


Main riff
[ Tab from: http://www.guitartabs.cc/tabs/j/jet/cold_hard_bitch_tab_ver_3.html ]
----------------|---------------------------------------
----------------|-3-------------------------------------
-2--2-2-------2-|-2--2----------------------------------
-2--2-2-------2-|-0--2----------------------------------
-0--0-0-------0-|-0--0----------------------------------
---------0--3---|---------------------------------------

RIFF 1
-------------------------------------------------------
-3--3-3--3-3--3-3---3---3---3---3----------------------
-2--2-2--2-2--2-2---2---2---2---2----------------------
-0--0-0--0-0--0-0---0---0---0---0----------------------
-0--0-0------------------------------------------------
---------2-0--2-0---2---0---2---0----------------------

RIFF 2
-------------------------------------------------------
-------3--3--3--3--------------------------------------
-2--2--0--2--2--0---2----------------------------------
-2--2--0--0--0--0---2----------------------------------
-0--0--2--0--0--2---0----------------------------------
----3--3--------3--------------------------------------

questions of comments Animan@sbcglobal.net
Comments