Jet - Cold Hard Bitch Chords & Tabs

 

Cold Hard Bitch Chords & Tabs

Jet Chords & Tabs

Version: 1 Type: Tab 1 rating
1 star 2 stars 3 stars 4 stars 5 stars
comments

Cold Hard Bitch Tab

Jet - Cold Hard Bitch
tabbed by Leebop

Intro
Guitar 1
|---------------|---------------------------------|
|---------------|---------------------------------|
|---------------|-----7---------7---7-------------|(1X)
|-2-------------|-----7---------7---7-----7-------|
|-0-------------|-0-0-0-0-0-0-0-0-0-0-0-0-7-0-0-0-|
|---------------|---------------------------------|
                                           				
|----------------------------------|
|----------------------------------|
|-----7---------7---7--------------| (7X)
|-----7---7-----7---7-----7--------|
|-0-0-0-0-7-0-0-0-0-0-0-0-7-0-0----|
|-------------------------------7^-|
	  (Slight bend)

Guitar 2
|--------|--------------------------------|
|--------|--------------------------------|
|--------|--------------------------------|
|--------|--------------------------------|
|-7-9-7-9|-10--9---10/9-7-10--9---7-9-7-9-|
|-5-5-5-5|-5---5---5----5-5---5---5-5-5-5-|

above is how he plays it, but an easier way is:
|--------|--------------------------------|
|--------|--------------------------------|
|--------|--------------------------------|
|-2-4-2-4|-5---4---5/4--2-5---4---2-4-2-4-|
|-0-0-0-0|-0---0---0----0-0---0---0-0-0-0-|
|--------|--------------------------------|

At end of intro (both guitars)
                   Yeah!!!!!!!!!!!   Yeah
|------------------3-----------------3---------------------|
|-3---3-----2------3-----------------3---------------------|
|-2---2---0-2------0-----------------0---------------------|
|-0---0---0-2------0-----------------0---------------------|
|-0---0-----0------2-----------------2---------------------|
|------------------3-----------------3---------------------|
[ Tab from: http://www.guitartabs.cc/tabs/j/jet/cold_hard_bitch_tab.html ]
Main riff
|----------------------------------------------------------------|
|--------------------3---------------------3---------------------|
|-2----2-2-----------2--2----2-2-----------2--2----2-2-----------|
|-2----2-2-----------0--2----2-2-----------0--2----2-2-----------|
|-0----0-0--------------0----0-0--------------0----0-0-----------|
|-----------0-3^-0-3^-------------0-3^-0-3^-------------0-3^-0-3^|		(Slight bends)
Verse
 (Gotta leave town...)
|---------------------------3---2--------------------------|
|-2-------------------------3---3--------------------------|
|-2-------------------------0---2---0-2---2-2--------------|
|-2-------------------------0---0---0-2---2-2--------------|
|-0-------------------------2---0-----0---0-0--------------|
|---------------------------3-------------------0-3^-0-3^--|

 (Gonna hang around until..)
|-2---------0----3----2--2--2-2-2--2--2--2--2-2--2-2-2--2--2--2-|
|-3---------0----3----3--3--3-3-3--3--3--3--3-3--3-3-3--3--3--3-|
|-2---------1----0----2--2--2-2-0--2--0--2--0-2--2-2-0--2--0--2-|
|-0---------2----0----0--0--0-0-0--0--0--0--0-0--0-0-0--0--0--0-|
|-0---------2----2----------------------------------------------|
|-----------0----3----------------------------------------------|

Chorus
|---------3-----3-2-----2-------------------|
|-2-----2-3-----3-3-----3-------------------| (on last time, stop
|-2-----2-0-----0-2-----2-0-----------------|   and hold on the
|-2-----2-0-----0-0-----0-0-3---3----5---5--|   D chord)
|-0-----0-2-----2-----------3-3-3----5-5-5--|
|---------3-----3-----------1-0-1----3-0-3--|

 Bridge
|---3---3-2---2-2-------------3---3-2---2-2-----------|
|-2-3---3-3---3-3---2-------2-3---3-3---3-3---2-------|
|-2-0---0-2---2-2---2-------2-0---0-2---2-2---2-------|
|-2-0---0-0---0-0-0-2-------2-0---0-0---0-0-0-2-------|
|-0-2---2---------2-0-------0-2---2---------2-0-------|      
|---3---3---------3-----3^----3---3---------3-----3^--|
when singing starts (well I’m waiting...), play same chords and
timing as above, but strum more(1/8th notes)

interlude - same as intro, except guitar 2 starts first.

Comments