Jet - Cold Hard Bitch Chords & Tabs

 

Cold Hard Bitch Chords & Tabs

Jet Chords & Tabs

Version: 1 Type: Bass Tab 0 ratings
1 star 2 stars 3 stars 4 stars 5 stars
comments

Cold Hard Bitch Bass Tab

   
******************************
* "COLD HARD BITCH" BY JET   *
******************************
TAB by: Bigjtut
Tuning: Regular (E,A,D,G)
Time Measure: 4/4
Notes: 
 When you see this in my tabs
           (hq)
 that is how I portray notes tied together.
 This example is a half note tied with a 
 quater note (three beats).

 w = whole note     e = eighth note
 q = quarter note   s = sixteenth note
 r = rest           h = hammer on

 Read this TAB straight through.  This is pretty simple, but
 there is some weird timing in here.  There is one part at the
 middle of the song where they add two beats.  Crazy stuff.


INTRO:
    REPEAT 11X                        REPEAT 6X
   E E E E E E E E    E E E E E E q    q q q q    q q q E E     
|:-----------------:|---------------|:---------:|-----------|
|:-----------------:|---------------|:---------:|-----------|
|:-----------------:|---------------|:---------:|---------5-|
|:-5-5-5-5-5-5-5-5-:|-5-5-5-5-5-5-5-|:-r-5-r-5-:|-r-5-5-5---|

 E q E q q   q E E E E E E   E E E E E E E E   E E E E E E E E
-----------|---------------|-----------------|-----------------|
-----------|---------------|-----------------|-5-5-5-5-5-5-5-5-|
-r-5-------|---------------|-----------------|-----------------|
-----5-5-r-|-3-3-3-3-3-3-3-|-3-3-3-3-3-3-3-3-|-----------------|

 E E q E E q       
-----5-------|
-3-5---3-----|
---------0-3-|
-------------|


VERSE:
            |-----------REPEAT 3X---------|
  q q E q (E  q) E E E E E (E q) q E q (E  q) E E E E q    
|-----------|:---------------|-----------:|-------------|
|-----------|:---------------|-----------:|-------------|
|-----------|:-------------5-|5----------:|-------------|
|-5-r-r-5-5-|:5--r-0-3-0-3---|---5-r-5-5-:|5--r-0-3-0-3-|

|---------------------REPEAT 2X-----------------|
   q (hq)  (qe) q q e   q q e q (e q) e e e e q     
|:--------|-----------|-----------|-------------:|
|:--------|-----------|-----------|-------------:|
|:--------|-------5---|-----------|-------------:|
|:-5--r---|-r---3---3-|-5-r-r-5-5-|5--r-0-3-0-3-:|


BRIDGE:
[ Tab from: http://www.guitartabs.cc/tabs/j/jet/cold_hard_bitch_btab.html ]
 q q q q   E E E E E E E E   q q q E (E q) q q q   
---------|-----------------|-----------|---------|
---------|-----------------|-----------|---------|
-5-5-5-5-|-5-5-5-5-5-5-5-5-|-7-7-7-7---|---------|
---------|-----------------|---------5-|5--5-5-5-|

 q (es) s E E E (E E) E q E E q                   
------------------|-------------|
------------------|-------------|
-5--5---5-3h5-3h5-|5--3h5-3h5-3-|
------------------|-------------|


CHORUS:
 q q E q (E q) q E q (E q) q E E E E   q q q q    
-----------|-----------|-------------|---------|
-----------|-----------|-------------|---------|
-----------|---------5-|5--r-r-5-3---|---------|
-5-r-r-5-3-|3--r-r-3---|-----------0-|-0-0-3-3-|

 q q E q (E q) q E q E  (w  hq) E E    
-----------|-----------|---|--------|
-----------|-----------|---|--------|
-----------|-----------|-5-|-5------|
-5-r-r-5-3-|3--r-r-3-r-|---|----0-3-|

REPEAT THE VERSE, BUT AFTER PLAYING THE FIRST NOTE, REST FOR
THREE AND A HALF MEASURES...THEN PLAY LIKE NORMAL.

REPEAT THE BRIDGE

REPEAT FIRST LINE OF CHORUS TWICE, THEN PLAY SECOND LINE CUTTING
OUT THE LAST TWO NOTES.  

NOW PLAY:
   |:-------REPEAT 2X--------:|
 w    E E E q E E E   E (eqh)              
---|:---------------|--------:|
---|:---------------|--------:|
-r-|:-5-3-----------|--------:|
---|:-----3-5-0-3-0-|-5---r--:|

            REPEAT 5X                             6 beats here
   E E E q E E E   E (qe) E (qe)   E E E q E E E   w q E E
|:---------------|--------------:|---------------|---------|
|:---------------|--------------:|---------------|---------|
|:-5-3-----------|-----------5--:|-5-3-----------|---------|
|:-----3-5-0-3-0-|-5--3---3-----:|-----3-5-0-3-0-|-5-r-r-5-|

                 |:------REPEAT 3X------:|
 q h q   h q E E    q q q q   q q q E E    q q q E E   E E E E h
-------|---------|:---------|-----------:|-----------|-----------|
-------|---------|:---------|-----------:|-----------|-----------|
-------|---------|:---------|-----------:|---------5-|-r-5-------|
-5-r-r-|-r-r-r-5-|:-5-r-5-r-|-5-r-5-r-5-:|-5-r-5-r---|-----r-5-5-|

 q E E E E E E   E E E E E E E E   q E E E E E E   E E E E E E q  
---------------|-----------------|---------------|---------------|
---------------|-----------------|-5-5-5-5-5-5-5-|-5-5-3---3-----|
---------------|-------------3-5-|---------------|-------5---5-3-|
-3-3-3-3-3-3-3-|-3-3-3-3-3-3-----|---------------|---------------|


REPEAT THE FIRST LINE OF THE CHORUS THREE TIMES.
Comments