Jet - Black Hearts On Fire Chords & Tabs

 

Black Hearts On Fire Chords & Tabs

Jet Chords & Tabs

Version: 2 Type: Tab 0 ratings
1 star 2 stars 3 stars 4 stars 5 stars
comments

Black Hearts On Fire Tab

Jet- Black Hearts on Fire

Goes something like this 

Verse 1

e|------------------------|------------------------|
B|------------------------|------------------------|
G|------------------------|-5555555----5555555-----|
D|------------------------|-5555555----5555555-----|
A|------------------------|-3333333----3333333-----|
E|-----------------------|------------------------|


e|------------------------|------------------------|
B|------------------------|------------------------|
G|------------3333333-----|-5555555----5555553----5|
D|-5555555----3333333--3--|-5555555----55555533-353|
A|-5555555----1111111--3--|-3333333----33333313-353|
E|-3333333-------------1--|-------------------1-13-|


e|------------------------|------------------------|
B|------------------------|------------------------|
G|-5555555----5555555-----|------------3333333-----|
D|-5555555----5555555-----|-5555555----3333333--3--|
A|-3333333----3333333-----|-5555555----1111111--3--|
E|------------------------|-3333333-------------1--|


e|------------------------|------------------------|
B|---------------------8--|------------------------|
G|-5555555----5555555--8--|------------3333333-----|
D|-5555555----5555555--8--|-5555555----3333333-----|
A|-3333333----3333333--6--|-5555555----1111111-----|
E|------------------------|-3333333----------------|


e|------------------------|
B|------------------------|
G|-7--7--7--7--7--7--7--7-| - x2
D|-7--7--7--7--7--7--7--7-|
A|-5--5--5--5--5--5--5--5-|
E|------------------------|
 PM......................

Pre-Chorus



e|------------------------|------------------------|
B|-8-----8-----8-----8----|-8-----8-----8-----8----|
G|------------------------|------------------------| 
D|------------------------|------------------------|
A|------------------------|------------------------|
E|------------------------|------------------------|
e|------------------------|------------------------|
 |
e|------------------------|------------------------|
B|------------------------|------------------------|
G|------------------------|-3--3--3--3--3--3--3--3-| 
D|-5--5--5--5--5--5--5--5-|-3--3--3--3--3--3--3--3-|
A|-5--5--5--5--5--5--5--5-|-1--1--1--1--1--1--1--1-|
E|-3--3--3--3--3--3--3--3-|------------------------|
PM.................................................



e|------------------------|------------------------|
B|-8-----8-----8-----8----|-8-----8-----8-----8----|
G|------------------------|------------------------| 
D|------------------------|------------------------|
A|------------------------|------------------------|
E|------------------------|------------------------|
e|------------------------|------------------------|
 |
e|------------------------|------------------------|
B|------------------------|------------------------|
G|-5--5--5--5--5--5--5--5-|------------------------|
D|-5--5--5--5--5--5--5--5-|-5--5--5--5-/3--3--3--3-|
A|-3--3--3--3--3--3--3--3-|-5--5--5--5-/3--3--3--3-|
E|------------------------|-3--3--3--3-/1--1--1--1-|
PM.................................................



e|------------------------|------------------------|
B|-8-----8-----8-----8----|-8-----8-----8-----8----|
G|------------------------|------------------------| 
D|------------------------|------------------------|
A|------------------------|------------------------|
E|------------------------|------------------------|
e|------------------------|------------------------|
 |
e|------------------------|------------------------|
B|------------------------|------------------------|
G|------------------------|-3--3--3--3--3--3--3--3-| 
D|-5--5--5--5--5--5--5--5-|-3--3--3--3--3--3--3--3-|
A|-5--5--5--5--5--5--5--5-|-1--1--1--1--1--1--1--1-|
E|-3--3--3--3--3--3--3--3-|------------------------|
PM.................................................



e|------------------------|------------------------|
B|-8-----8-----8-----8----|-8----------------------|
G|------------------------|------------------------| 
D|------------------------|------------------------|
A|------------------------|------------------------|
E|------------------------|------------------------|
e|------------------------|------------------------|
 |
e|------------------------|------------------------|
B|------------------------|------------------------|
G|-5--5--5--5--5--5--5--5-|------------------------|
D|-5--5--5--5--5--5--5--5-|-5----------------------|
A|-3--3--3--3--3--3--3--3-|-5----------------------|
E|------------------------|-3----------------------|
PM.................................................


Chorus 1

e|------------------------|------------------------|
B|------------------------|------------------------|
G|------------------------|-3-----3-----3--3--3----| 
D|-5-----5-----5--5--5----|-3-----3-----3--3--3----|
A|-5-----5-----5--5--5----|-1-----1-----1--1--1----|
E|-3-----3-----3--3--3----|------------------------|

e|------------------------|------------------------|
B|------------------------|------------------------|
G|-5-----5-----5--5--3----|------------------------|
D|-5-----5-----5--5--3----|-5-----5-----5--5--3----|
A|-3-----3-----3--3--1----|-5-----5-----5--5--3----|
E|------------------------|-3-----3-----3--5--1----|

e|------------------------|------------------------|
B|------------------------|------------------------|
G|------------------------|-3-----3-----3--3--3----| 
D|-5-----5-----5--5--5----|-3-----3-----3--3--3----|
A|-5-----5-----5--5--5----|-1-----1-----1--1--1----|
E|-3-----3-----3--3--3----|------------------------|
[ Tab from: http://www.guitartabs.cc/tabs/j/jet/black_hearts_on_fire_tab_ver_2.html ]
e|------------------------|------------------------|
B|------------------------|------------------------|
G|-5-----5-----5--5--7----|-8--8--8--8--8--8--8--8-|
D|-5-----5-----5--5--7----|-8--8--8--8--8--8--8--8-|
A|-3-----3-----3--3--5----|-6--6--6--6--6--6--6--6-|
E|------------------------|------------------------|
                          PM........................

Bridge

e|------------------------|------------------------|
B|------------------------|------------------------|
G|-------3--5--3--5--3----|--3333333---------------|
D|-5-----3--5--3--5--3----|--3333333---3-----------|
A|-5-----1--3--1--3--1----|--1111111---3-----------|
E|-3----------------------|------------1-----------|


e|------------------------|------------------------|
B|------------------------|------------------------|
G|------------------------|------------------------|
D|-5-----5-----5--8----5--|--8----5-------8----5---|
A|-5-----5-----5--8----5--|--8----5-------8----5---|
E|-3-----3-----3--6----3--|--6----3-------6----3---|


Verse 2

e|------------------------|------------------------|
B|------------------------|------------------------|
G|-5555555----5555555-----|-5555555----5555555-----|
D|-5555555----5555555-----|-5555555----5555555-----|
A|-3333333----3333333-----|-3333333----3333333-----|
E|------------------------|------------------------|


e|------------------------|------------------------|
B|------------------------|------------------------|
G|------------3333333-----|-5555555----555555------|
D|-5555555----3333333--3--|-5555555----555555------|
A|-5555555----1111111--3--|-3333333----333333------|
E|-3333333-------------1--|------------------------|


e|------------------------|------------------------|
B|---------------------8--|------------------------|
G|-5555555----5555555--8--|------------3333333-----|
D|-5555555----5555555--8--|-5555555----3333333-----|
A|-3333333----3333333--6--|-5555555----1111111-----|
E|------------------------|-3333333----------------|


e|------------------------|
B|------------------------|
G|-7--7--7--7--7--7--7--7-| - x2
D|-7--7--7--7--7--7--7--7-|
A|-5--5--5--5--5--5--5--5-|
E|------------------------|
 PM......................


Pre-Chorus (same as before)

Chorus 2 (has the same rhythm with something like this over the top) 


e|------------------------|--------7b8-----6-------|
B|----8---6-----6---8-----|---8---------------8----|
G|------------------------|------------------------|
D|------------------------|------------------------|
A|------------------------|------------------------|
E|------------------------|------------------------|

e|------------------------|------------------------|
B|----8---6-----6---8-----|---8--------------------|
G|------------------------|------5b6r5p3--5-3-0----|
D|------------------------|------------------------|
A|------------------------|------------------------|
E|------------------------|------------------------|

e|------------------------|-------8b10--6--8b10----|
B|----8---6-----6---8-----|---8--------------------|
G|------------------------|------------------------|
D|------------------------|------------------------|
A|------------------------|------------------------|
E|------------------------|------------------------|

e|------------------------|------------------------|
B|----8---6-----6---8-----|---8--------------------|
G|------------------------|------5b6--3--5--3--0---|
D|------------------------|------------------------|
A|------------------------|------------------------|
E|------------------------|------------------------|


After Chorus 2 

e|------------------------|------------------------|
B|------------------------|------------------------|
G|------------------------|-3--3--3--3--3--3--3--3-| 
D|-5--5--5--5--5--5--5--5-|-3--3--3--3--3--3--3--3-|
A|-5--5--5--5--5--5--5--5-|-1--1--1--1--1--1--1--1-|
E|-3--3--3--3--3--3--3--3-|------------------------|
PM..................................................


e|------------------------|
B|------------------------|
G|-7--7--7--7--7--7--7--7-| - x2
D|-7--7--7--7--7--7--7--7-|
A|-5--5--5--5--5--5--5--5-|
E|------------------------|
 PM......................


Solo (riff played behind it is something similar to the bridge)


e|------------------------|------------------------|
B|--6-/-8--8---8-/-6-6-6--|--5-5-5---5-/-3-3---3---|
G|------------------------|------------------------|
D|------------------------|------------------------|
A|------------------------|------------------------|
E|------------------------|------------------------|

e|------------------------|------------------------|
B|------------------------|------------------------|
G|--5--3--5--5--3--5--5---|--3--5--3--5--3b5--0----|
D|------------------------|------------------------|
A|------------------------|------------------------|
E|------------------------|------------------------|

e|------------------------|------------------------|
B|-6-/-8--8-8-8-/-10-10-10|--11-11-11-10/11-11/13--|
G|------------------------|------------------------|
D|------------------------|------------------------|
A|------------------------|------------------------|
E|------------------------|------------------------|

e|------------------------|------------------------|
B|-13-13-/-15-15-/-18-18--|-/20---20---20---20-----|
G|------------------------|------------------------|
D|------------------------|------------------------|
A|------------------------|------------------------|
E|------------------------|------------------------|

e|--18-------18------18---|---18------18----18--18-|
B|------15-------15-------|15-----15-----15--------|
G|------------------------|------------------------|
D|------------------------|------------------------|
A|------------------------|------------------------|
E|------------------------|------------------------|

Chorus 3 (same as Chorus 2)

Bridge
Comments