Jet - Are You Gonna Be My Girl Chords & Tabs

 

Are You Gonna Be My Girl Chords & Tabs

Jet Chords & Tabs

Version: 8 Type: Tab 0 ratings
1 star 2 stars 3 stars 4 stars 5 stars
comments

Are You Gonna Be My Girl Tab

   
          Tabber: CONNOR GENTILCORE!!!

   Bass converted into guitar ( intro )
    e---------------------------------------------------|
    B---------------------------------------------------|
    G---------------------------------------------------|
    D---------------------------------------------------|
    A----------3----------------------3--3-5^-5^-3------|
    E-555-555-3--555-555-3-0-555-555-3--5----------5-3-5|

IMPORTANT: Repeat the bass part but here ^  you should play as a guitar...

    e-----------------|
    B-----------------|
    G--5-7^-7^-5------|
    D-7----------7-5-7|
    A-----------------|
    E-----------------|

   Main
    e------------------------------------------------------|
    B------------------------------------------------------|
    G-----------------------------------5-7^-7^-5----------|
    D---------------------------------7----------7-5-7-5---|
    A-777777-10-7777777-5-777777-10-----------------------7|
    E-5555555-8-5555555-3-5555555-8-----------------------5|

  1,2,3....

    e------------|
    B------------|
    G------------|
    D------------|x3
    A-777777-10-7|
    E-5555555-8-5|

    e-------------------------------|
    B-------------------------------|
    G-------------------------------|
    D-------------------------------|
    A-7777777-5----3-5^-5^-3--------|
    E-5555555-3--5-----------5-3-5-3|
[ Tab from: http://www.guitartabs.cc/tabs/j/jet/are_you_gonna_be_my_girl_tab_ver_8.html ]
    e----------------|----------------------------------------------|
    B----------------|----------------------------------------------|
    G----------------|----------------------------------------------|
    D-777-777-777-777|----------------------------------------------|x2
    A-555-555-555-555|-7777777-10101010101010-12121212121212-7777777|
    E----------------|-55555555-8888888888888-10101010101010-5555555|

    e-------------|
    B-------------|
    G-------------|
    D-9-9-9--12-12|
    A-7-7-7--10-10|
    E-------------|
  The rest is really from the main
    e------------------------------------------------------|
    B------------------------------------------------------|
    G-----------------------------------5-7^-7^-5----------|
    D---------------------------------7----------7-5-7-5---|
    A-777777-10-7777777-5-777777-10-----------------------7|
    E-5555555-8-5555555-3-5555555-8-----------------------5|

  1,2,3....

    e------------|
    B------------|
    G------------|
    D------------|x3
    A-777777-10-7|
    E-5555555-8-5|

    e-------------------------------|
    B-------------------------------|
    G-------------------------------|
    D-------------------------------|
    A-7777777-5----3-5^-5^-3--------|
    E-5555555-3--5-----------5-3-5-3|

    e----------------|----------------------------------------------|
    B----------------|----------------------------------------------|
    G----------------|----------------------------------------------|
    D-777-777-777-777|----------------------------------------------|x2
    A-555-555-555-555|-7777777-10101010101010-12121212121212-7777777|
    E----------------|-55555555-8888888888888-10101010101010-5555555|

    e-------------|
    B-------------|
    G-------------|
    D-9-9-9--12-12|
    A-7-7-7--10-10|
    E-------------|
Comments