Jet - Are You Gonna Be My Girl Chords & Tabs

 

Are You Gonna Be My Girl Chords & Tabs

Jet Chords & Tabs

Version: 16 Type: Tab 0 ratings
1 star 2 stars 3 stars 4 stars 5 stars
comments

Are You Gonna Be My Girl Tab

   
 Intro
  Q=110(16=s16)
 4/4
  Gtr I
  H      Wx8
|------|--------|
|------|--------|
|------|--------|
|------|--------|
|------|--------|
|------|--------|


                            $
  E E E +S    +E  S E E E   E E E. E E S S S S S   E E E. E E S S S S S
|-------------------------|----------------------|----------------------|
|---5-7-(7)b8r(7)-5-------|------------------5-5-|----------------------|
|---5-7-(7)b8r(7)-5-------|------------------5-5-|----------------------|
|-7-----------------7-7-5-|-7-7-7--7-7-7-7-7-----|-7-7-7--7-7-7-7-7-5-5-|
|-------------------------|----------------------|----------------------|
|-------------------------|----------------------|----------------------|
|
| Gtrs II, III
| W                         E E E. E E S S S S S   E E E. E E S S S S S
|-------------------------|----------------------|----------------------|
|-------------------------|------------------5-5-|----------------------|
|-------------------------|------------------5-5-|----------------------|
|-------------------------|-7-7-7--7-7-7-7-7-----|-7-7-7--7-7-7-7-7-5-5-|
|-------------------------|-7-7-7--7-7-7-7-7-----|-7-7-7--7-7-7-7-7-5-5-|
|-------------------------|-5-5-5--5-5-5-5-5-----|-5-5-5--5-5-5-5-5-5-5-|


                                                         Verse
  E E E. E E S S S S S   E E E  +S    +E  S E   E   E     E E H.        W
|----------------------|--------------------------------|-------------|------|
|------------------5-5-|---5-7--(7)b8r(7)-5-------------|-------------|------|
|------------------5-5-|---5-7--(7)b8r(7)-5-------------|-------------|------|
|-7-7-7--7-7-7-7-7-----|-7------------------7---7---5---|-7-----------|------|
|----------------------|--------------------------------|-------------|------|
|----------------------|--------------------------------|-------------|------|
|
| E E E. E E S S S S S   E E E.        E  E   S S S S S   E E H.        W
|----------------------|--------------------------------|-------------|------|
|------------------5-5-|--------------------------------|-------------|------|
|------------------5-5-|--------------------------------|-------------|------|
|-7-7-7--7-7-7-7-7-----|-7-7-7---------7--7---7-7-7-5-5-|-7-----------|------|
|-7-7-7--7-7-7-7-7-----|-7-7-7---------7--7---7-7-7-5-5-|-7-----------|------|
|-5-5-5--5-5-5-5-5-----|-5-5-5---------5--5---5-5-5-5-5-|-5-----------|------|


  E E E. E E S S S S S   E E H.        E E E. E E S S S S S   E E H.
|----------------------|-------------|----------------------|-----------|
|------------------5-5-|-------------|------------------5-5-|-----------|
|------------------5-5-|-------------|------------------5-5-|-----------|
|-7-7-7--7-7-7-7-7-----|-7-----------|-7-7-7--7-7-7-7-7-----|-7---------|
|----------------------|-------------|----------------------|-----------|
|----------------------|-------------|----------------------|-----------|
|
| E E E. E E S S S S S   E E H.        E E E. E E S S S S S   E E H.
|----------------------|-------------|----------------------|-----------|
|------------------5-5-|-------------|------------------5-5-|-----------|
|------------------5-5-|-------------|------------------5-5-|-----------|
|-7-7-7--7-7-7-7-7-----|-7-----------|-7-7-7--7-7-7-7-7-----|-7---------|
|-7-7-7--7-7-7-7-7-----|-7-----------|-7-7-7--7-7-7-7-7-----|-7---------|
|-5-5-5--5-5-5-5-5-----|-5-----------|-5-5-5--5-5-5-5-5-----|-5---------|


  W          E E E. E E S S S S S   E E E  +S    +E  S E   E   E
|----------|----------------------|---------------------------------|
|----------|------------------5-5-|---5-7--(7)b8r(7)-5--------------|
|----------|------------------5-5-|---5-7--(7)b8r(7)-5--------------|
|----------|-7-7-7--7-7-7-7-7-----|-7------------------7---7---5----|
|----------|----------------------|---------------------------------|
|----------|----------------------|---------------------------------|
|
| W          E E E. E E S S S S S   E E E.        E  E   S S S S S
|----------|----------------------|---------------------------------|
|----------|------------------5-5-|---------------------------------|
|----------|------------------5-5-|---------------------------------|
|----------|-7-7-7--7-7-7-7-7-----|-7-7-7---------7--7---7-7-7-5-5--|
|----------|-7-7-7--7-7-7-7-7-----|-7-7-7---------7--7---7-7-7-5-5--|
|----------|-5-5-5--5-5-5-5-5-----|-5-5-5---------5--5---5-5-5-5-5--|


 Pre-Chorus
  E E. E. E. S S S E   E E. E. E. S S S E
|--------------------|--------------------|
|--------------------|--------------------|
|---7--7--7--7-5-----|---7--7--7--7-5-----|
|----------------7-5-|----------------7-5-|
|--------------------|--------------------|
|--------------------|--------------------|
|
| E E. E. E. S S S E   E E. E. E. S S S E
|--------------------|--------------------|
|--------------------|--------------------|
|---7--7--7--x-5-x---|---7--7--7--x-5-x---|
|---7--7--7--x-5-x-5-|---7--7--7--x-5-x-5-|
|---5--5--5--x-3-x-5-|---5--5--5--x-3-x-5-|
|------------------3-|------------------3-|


  E E. E. E. S S S E   E E. E. E. S S S E
|--------------------|--------------------|
|--------------------|--------------------|
|---7--7--7--7-5-----|---7--7--7--7-5-----|
|----------------7-5-|----------------7-5-|
|--------------------|--------------------|
|--------------------|--------------------|
|
| E E. E. E. S S S E   E E. E. E. S S S E
|--------------------|--------------------|
|--------------------|--------------------|
|---7--7--7--x-5-x---|---7--7--7--x-5-x---|
|---7--7--7--x-5-x-5-|---7--7--7--x-5-x-5-|
|---5--5--5--x-3-x-5-|---5--5--5--x-3-x-5-|
|------------------3-|------------------3-|


   Chorus
    E E E. E E S S S S S   E E E. E E S S S S S
||-----------------------|----------------------|
||o----------------------|----------------------|
||-----------------------|-5-5-5--5-5-5-5-5-5-5-|
||--7-7-7--7-7-7-7-7-7-7-|----------------------|
||o----------------------|----------------------|
||-----------------------|----------------------|
|
|   E E E. E E S S S S S   E E E. E E S S S S S
||-----------------------|----------------------|
||o----------------------|----------------------|
||-----------------------|-5-5-5--5-5-5-5-5-5-5-|
||--7-7-7--7-7-7-7-7-7-7-|-5-5-5--5-5-5-5-5-5-5-|
||o-7-7-7--7-7-7-7-7-7-7-|-3-3-3--3-3-3-3-3-3-3-|
||--5-5-5--5-5-5-5-5-5-5-|----------------------|


  E E E. E E S S S S S   E E E. E E S S S S S
|----------------------|-----------------------||
|----------------------|----------------------o||
|-7-7-7--7-7-7-7-7-7-7-|-----------------------||
|----------------------|-7-7-7--7-7-7-7-7-7-7--||
|----------------------|----------------------o||
|----------------------|-----------------------||
|
| E E E. E E S S S S S   E E E. E E S S S S S
|----------------------|-----------------------||
|----------------------|----------------------o||
|-7-7-7--7-7-7-7-7-7-7-|-----------------------||
|-7-7-7--7-7-7-7-7-7-7-|-7-7-7--7-7-7-7-7-7-7--||
|-5-5-5--5-5-5-5-5-5-5-|-7-7-7--7-7-7-7-7-7-7-o||
|----------------------|-5-5-5--5-5-5-5-5-5-5--||


                                               To Coda
  E E. E. E. S S S S S    E  E  +H.         +W
|----------------------|-----------------|-------------|
|----------------------|-----------------|-------------|
|----------------------|-----------------|-------------|
|---9--9--9--x-9-x-9-x-|-12-12-(12)------|-(12)--------|
|---7--7--7--x-7-x-7-x-|-10-10-(10)------|-(10)--------|
|----------------------|-----------------|-------------|
|
| E E. E. E. S S S S S    E  E  +H.         +W
|----------------------|-----------------|-------------|
|----------------------|-----------------|-------------|
|----------------------|-----------------|-------------|
|----------------------|--5--5--(5)------|--(5)--------|
|---7--7--7--x-7-x-7-x-|--3--3--(3)------|--(3)--------|
|---5--5--5--x-5-x-5-x-|-----------------|-------------|


  E E E. E E S S S S S   E.   S H.
|----------------------|-------------------------|
|------------------5-5-|-7----5------------------|
|------------------5-5-|-7----5------------------|
|-7-7-7--7-7-7-7-7-----|--------7----------------|
|----------------------|-------------------------|
|----------------------|-------------------------|
|
| E E E. E E S S S S S   E  E   E. E E S S S S S
|----------------------|-------------------------|
|------------------5-5-|-------------------------|
|------------------5-5-|-------------------------|
|-7-7-7--7-7-7-7-7-----|-7--7---7--7-7-7-7-7-5-5-|
|-7-7-7--7-7-7-7-7-----|-7--7---7--7-7-7-7-7-5-5-|
|-5-5-5--5-5-5-5-5-----|-5--5---5--5-5-5-5-5-5-5-|


  E E E. E E S S S S S   E E E  +S    +E  S E   E   E
|----------------------|---------------------------------|
|------------------5-5-|---5-7--(7)b8r(7)-5--------------|
|------------------5-5-|---5-7--(7)b8r(7)-5--------------|
|-7-7-7--7-7-7-7-7-----|-7------------------7---7---5----|
|----------------------|---------------------------------|
|----------------------|---------------------------------|
|
| E E E. E E S S S S S   E E E.        E  E   S S S S S
|----------------------|---------------------------------|
|------------------5-5-|---------------------------------|
|------------------5-5-|---------------------------------|
|-7-7-7--7-7-7-7-7-----|-7-7-7---------7--7---7-7-7-5-5--|
|-7-7-7--7-7-7-7-7-----|-7-7-7---------7--7---7-7-7-5-5--|
|-5-5-5--5-5-5-5-5-----|-5-5-5---------5--5---5-5-5-5-5--|

[ Tab from: http://www.guitartabs.cc/tabs/j/jet/are_you_gonna_be_my_girl_tab_ver_16.html ]
 Verse
                                             D.S. al Coda
  E E H.        W          E E E. E E S S S S S   E E H.
|-------------|----------|----------------------|------------|
|-------------|----------|------------------5-5-|------------|
|-------------|----------|------------------5-5-|------------|
|-7-----------|----------|-7-7-7--7-7-7-7-7-----|-7----------|
|-------------|----------|----------------------|------------|
|-------------|----------|----------------------|------------|
|
| E E H.        W          E E E. E E S S S S S   E E H.
|-------------|----------|----------------------|------------|
|-------------|----------|------------------5-5-|------------|
|-------------|----------|------------------5-5-|------------|
|-7-----------|----------|-7-7-7--7-7-7-7-7-----|-7----------|
|-7-----------|----------|-7-7-7--7-7-7-7-7-----|-7----------|
|-5-----------|----------|-5-5-5--5-5-5-5-5-----|-5----------|


 Interlude
  &
  W                      W
|----------------------|----------------------|
|----------------------|----------------------|
|----------------------|----------------------|
|----------------------|----------------------|
|----------------------|----------------------|
|----------------------|----------------------|
|
| E E E. E E S S S S S   E E E. E E S S S S S
|----------------------|----------------------|
|----------------------|----------------------|
|----------------------|----------------------|
|-7-7-7--7-7-7-7-7-5-5-|-7-7-7--7-7-7-7-7-5-5-|
|-7-7-7--7-7-7-7-7-5-5-|-7-7-7--7-7-7-7-7-5-5-|
|-5-5-5--5-5-5-5-5-5-5-|-5-5-5--5-5-5-5-5-5-5-|


   E  E  E.  E  E S  S S  S S    E  E  E.  E  E S  S S  S S
|-----------------------------|------------------------------|
|-14-14-14--14-14-x-14-x-14-x-|-14-14-14--14-14-x-14-x-14-x--|
|-14-14-14--14-14-x-14-x-14-x-|-14-14-14--14-14-x-14-x-14-x--|
|-----------------------------|------------------------------|
|-----------------------------|------------------------------|
|-----------------------------|------------------------------|
|
|  E  E  E.  E  E S  S S  S S    E  E  E.  E  E S  S S  S S
|-----------------------------|------------------------------|
|-----------------------------|------------------------------|
|-----------------------------|------------------------------|
|--7--7--7---7--7-7--7-7--5-5-|--7--7--7---7--7-7--7-7--5-5--|
|--7--7--7---7--7-7--7-7--5-5-|--7--7--7---7--7-7--7-7--5-5--|
|--5--5--5---5--5-5--5-5--5-5-|--5--5--5---5--5-5--5-5--5-5--|


   Guitar Solo
     E   E  E.          E   E S  S   S   S S    E   E  E.          E   E S  S   S   S S
||-------------------------------------------|------------------------------------------|
||o-14--14-14----------14--14-x-14---x--14-x-|-15--15-15----------15--15-x-15---x--15-x-|
||--14--14-14----------14--14-x-14---x--14-x-|-14--14-14----------14--14-x-14---x--14-x-|
||-------------------------------------------|------------------------------------------|
||o------------------------------------------|------------------------------------------|
||-------------------------------------------|------------------------------------------|
|
|    E   E  E.          E   E S  S   S   S S    E   E  E.          E   E S  S   S   S S
||-------------------------------------------|------------------------------------------|
||o------------------------------------------|------------------------------------------|
||-------------------------------------------|------------------------------------------|
||---7---7--7-----------7---7-7--7---7---5-5-|--7---7--7-----------7---7-7--7---7---5-5-|
||o--7---7--7-----------7---7-7--7---7---5-5-|--7---7--7-----------7---7-7--7---7---5-5-|
||---5---5--5-----------5---5-5--5---5---5-5-|--5---5--5-----------5---5-5--5---5---5-5-|
|
|   Gtr III
|    Q.         S      +E   Q       +S   E      Q.         S      +E   Q       +S   E
||--------------------------------------10---|-------------------------------------12---|
||o------------12pb14r(12)-10------(10)------|------------12pb14r(12)-10------(10)------|
||-------------------------------------------|------------------------------------------|
||-------------------------------------------|------------------------------------------|
||o------------------------------------------|------------------------------------------|
||-------------------------------------------|------------------------------------------|


   E   E  E.          E   E S  S   S   S S    E   E  E.          E   E S  S  S  S   S
|-14--14-14----------14--14-x-14---x--14-x-|----------------------------------------------||
|-15--15-15----------15--15-x-15---x--15-x-|-14--14-14----------14--14-x-14--x-14---x----o||
|-14--14-14----------14--14-x-14---x--14-x-|-14--14-14----------14--14-x-14--x-14---x-----||
|------------------------------------------|----------------------------------------------||
|------------------------------------------|---------------------------------------------o||
|------------------------------------------|----------------------------------------------||
|
|  E   E  E.          E   E S  S   S   S S    E   E  E.          E   E S  S  S  S   S
|------------------------------------------|----------------------------------------------||
|------------------------------------------|---------------------------------------------o||
|------------------------------------------|----------------------------------------------||
|--7---7--7-----------7---7-7--7---7---5-5-|--7---7--7-----------7---7-7--7--7--5---5-----||
|--7---7--7-----------7---7-7--7---7---5-5-|--7---7--7-----------7---7-7--7--7--5---5----o||
|--5---5--5-----------5---5-5--5---5---5-5-|--5---5--5-----------5---5-5--5--5--5---5-----||
|
|  Q.         S      +E   Q       +S   E      Q.         S      +E   Q       E     +S
|-------------------------------------10---|----------------------------------------------||
|------------12pb14r(12)-10------(10)------|------------12pb14r(12)---------10----(10)---o||
|------------------------------------------|------------------------12--------------------||
|------------------------------------------|----------------------------------------------||
|------------------------------------------|---------------------------------------------o||
|------------------------------------------|----------------------------------------------||


   Out-Chorus
    E  E E.          E   E S S   S   S S   E  E E.          E   E S S   S   S S
||---------------------------------------|--------------------------------------|
||o--------------------------------------|--------------------------------------|
||---------------------------------------|-5--5-5-----------5---5-5-5---5---5-5-|
||--7--7-7-----------7---7-7-7---7---7-7-|--------------------------------------|
||o--------------------------------------|--------------------------------------|
||---------------------------------------|--------------------------------------|
|
|   E  E E.          E   E S S   S   S S   E  E E.          E   E S S   S   S S
||---------------------------------------|--------------------------------------|
||o--------------------------------------|--------------------------------------|
||---------------------------------------|-5--5-5-----------5---5-5-5---5---5-5-|
||--7--7-7-----------7---7-7-7---7---7-7-|-5--5-5-----------5---5-5-5---5---5-5-|
||o-7--7-7-----------7---7-7-7---7---7-7-|-3--3-3-----------3---3-3-3---3---3-3-|
||--5--5-5-----------5---5-5-5---5---5-5-|--------------------------------------|
|
|   Q.       S      +E   Q      +S   E     Q.       S      +E   Q      +S   E
||----------------------------------10---|---------------------------------12---|
||o---------12pb14r(12)-10-----(10)------|---------12pb14r(12)-10-----(10)------|
||---------------------------------------|--------------------------------------|
||---------------------------------------|--------------------------------------|
||o--------------------------------------|--------------------------------------|
||---------------------------------------|--------------------------------------|


                                        1.,2.
  E  E E.          E   E S S   S   S S   E  E E.          E   E S S  S S   S     3x
|--------------------------------------|-----------------------------------------||
|--------------------------------------|----------------------------------------o||
|-7--7-7-----------7---7-7-7---7---7-7-|-----------------------------------------||
|--------------------------------------|-7--7-7-----------7---7-7-7--7-7---7-----||
|--------------------------------------|----------------------------------------o||
|--------------------------------------|-----------------------------------------||
|
| E  E E.          E   E S S   S   S S   E  E E.          E   E S S  S S   S     3x
|--------------------------------------|-----------------------------------------||
|--------------------------------------|----------------------------------------o||
|-7--7-7-----------7---7-7-7---7---7-7-|-----------------------------------------||
|-7--7-7-----------7---7-7-7---7---7-7-|-7--7-7-----------7---7-7-7--7-7---7-----||
|-5--5-5-----------5---5-5-5---5---5-5-|-7--7-7-----------7---7-7-7--7-7---7----o||
|--------------------------------------|-5--5-5-----------5---5-5-5--5-5---5-----||
|
| Q.       S      +E   Q      +S   E     Q.       S      +E   Q      E    +S     3x
|---------------------------------10---|-----------------------------------------||
|---------12pb14r(12)-10-----(10)------|---------12pb14r(12)--------10---(10)---o||
|--------------------------------------|---------------------12------------------||
|--------------------------------------|-----------------------------------------||
|--------------------------------------|----------------------------------------o||
|--------------------------------------|-----------------------------------------||


  3.
                                 >
  E E. E. E. S S S S S    E  E  +H.         +W            +Q    H.
|----------------------|-----------------|-------------|------------------*|
|----------------------|-----------------|-------------|------------------*|
|----------------------|-----------------|-------------|------------------*|
|---9--9--9--x-9-x-9-x-|-12-12-(12)------|-(12)--------|-(12)\------------*|
|---7--7--7--x-7-x-7-x-|-10-10-(10)------|-(10)--------|-(10)\------------*|
|----------------------|-----------------|-------------|------------------*|
|
|                                >
| E E. E. E. S S S S S    E  E  +H.         +W            +Q    H.
|----------------------|-----------------|-------------|------------------*|
|----------------------|-----------------|-------------|------------------*|
|----------------------|-----------------|-------------|------------------*|
|----------------------|-----------------|-------------|------------------*|
|---7--7--7--x-7-x-7-x-|-10-10-(10)------|-(10)--------|-(10)\------------*|
|---5--5--5--x-5-x-5-x-|--8--8--(8)------|--(8)--------|--(8)\------------*|
|
|                                >
| E E. E. E. S S S S S    E  E  +H.         +W            +Q    E  E H
|----------------------|-----------------|-------------|------------------*|
|----------------------|-----------------|-------------|------------------*|
|----------------------|-----------------|-------------|------------------*|
|---9--9--9--x-9-x-9-x-|-12-12-(12)------|-(12)--------|-(12)\------------*|
|---7--7--7--x-7-x-7-x-|-10-10-(10)------|-(10)--------|-(10)\------------*|
|----------------------|-----------------|-------------|--------0---------*|
Comments