Jet - Are You Gonna Be My Girl Chords & Tabs

 

Are You Gonna Be My Girl Chords & Tabs

Jet Chords & Tabs

Version: 13 Type: Tab 0 ratings
1 star 2 stars 3 stars 4 stars 5 stars
comments

Are You Gonna Be My Girl Tab

   
**Tambourine**

**Bass Enters**

**Drums Enter**

Guitar 1:
E-------------------
B---5-7b-7b-5-------
G---5-7b-7b-5-------
D-7-----------7-7-5-
A-------------------
E-------------------


Both guitars:
E--------------------
B------------------5-
G------------------5-
D-7-7-7-x-7-7-7-7-7--
A-7-7-7-x-7-7-7-7-7--
E-5-5-5-x-5-5-5-5-5--

E---------------------
B---------------------
G---------------------
D-7-7-7-x-7-7-7-7-7-5-
A-7-7-7-x-7-7-7-7-7-5-
E-5-5-5-x-5-5-5-5-5-5-

E--------------------
B------------------5-
G------------------5-
D-7-7-7-x-7-7-7-7-7--
A-7-7-7-x-7-7-7-7-7--
E-5-5-5-x-5-5-5-5-5--

E---------------------
B---5-7b-7b-5---------
G---5-7b-7b-5---------
D-7-----------7-7-5-7-
A-------------------7-
E-------------------5-

"uh-go!"

E----------------------
B------------------5---
G------------------5---
D-7-7-7-x-7-7-7-7-7--7-
A-7-7-7-x-7-7-7-7-7--7-
E-5-5-5-x-5-5-5-5-5--5-

"Well it's a 1, 2, 3 
Take my hand and come with me
Becasue you look so fine
That i really wanna make you mine."

E----------------------
B------------------5---
G------------------5---
D-7-7-7-x-7-7-7-7-7--7-
A-7-7-7-x-7-7-7-7-7--7-
E-5-5-5-x-5-5-5-5-5--5-


"I said you look so fine
That I really wanna make you mine."


E-----------------------
B-----------------------
G-----------------------
D-7-7-7-x-7-7-7-7-7-5-7-
A-7-7-7-x-7-7-7-7-7-5-7-
E-5-5-5-x-5-5-5-5-5-5-5-

"4, 5, 6
Come on and get your kicks
Now you don't need the money 
When you look like that do ya' honey?"

E--------------------
B------------------5-
G------------------5-
D-7-7-7-x-7-7-7-7-7--
A-7-7-7-x-7-7-7-7-7--
E-5-5-5-x-5-5-5-5-5--

E-------------------
B---5-7b-7b-5-------
G---5-7b-7b-5-------
D-7-----------7-7-5-
A-------------------
E-------------------


E----------------------------------------
B----------------------------------------
G----------------------------------------
D---------------x-12----------------x-12-
A-12-12-12-x-10-x-10--12-12-12-x-10-x-10-
E-10-10-10-x-8--------10-10-10-x-8-------

"Big Black Boots"    "long Brown Hair"  

E------------------------------------------
B------------------------------------------
G------------------------------------------
D---------------x-12-----------------------
A-12-12-12-x-10-x-10--12-12-12-12-12-12-12-
E-10-10-10-x-8--------10-10-10-10-10-10-10-
   
 "She's so cute with her... get back stare"


E-------------------------------------------
B-------------------------------------------
G-----------------------5-5-5-5-5-5-5-5-5-5-
D-7-7-7-7-7-7-7-7-7-7-7-5-5-5-5-5-5-5-5-5-5-
A-7-7-7-7-7-7-7-7-7-7-7-3-3-3-3-3-3-3-3-3-3-
E-5-5-5-5-5-5-5-5-5-5-5---------------------
  
  "I could see"          "You home with me"    


E---------------------------------------------
B---------------------------------------------
G-7-7-7-7-7-7-7-7-7-7-7-----------------------
D-7-7-7-7-7-7-7-7-7-7-7-7-7-7-7-7-7-7-7-7-7-7-
A-5-5-5-5-5-5-5-5-5-5-5-7-7-7-7-7-7-7-7-7-7-7-
E-----------------------5-5-5-5-5-5-5-5-5-5-5-
   
   "but you were with another man... yeah"


E-------------------------------------------
B-------------------------------------------
G-----------------------5-5-5-5-5-5-5-5-5-5-
D-7-7-7-7-7-7-7-7-7-7-7-5-5-5-5-5-5-5-5-5-5-
A-7-7-7-7-7-7-7-7-7-7-7-3-3-3-3-3-3-3-3-3-3-
E-5-5-5-5-5-5-5-5-5-5-5---------------------

"I know we ain't got"     "Much to say"         


E---------------------------------------------
B---------------------------------------------
G-7-7-7-7-7-7-7-7-7-7-7-----------------------
D-7-7-7-7-7-7-7-7-7-7-7-7-7-7-7-7-7-7-7-7-7-7-
A-5-5-5-5-5-5-5-5-5-5-5-7-7-7-7-7-7-7-7-7-7-7-
E-----------------------5-5-5-5-5-5-5-5-5-5-5-

"Before I let you get away... yeah"



guitar 1:
E------------------------
B------------------------
G------------------------
D-9-9-9-9-9-9-9-9/12-12~~
A-7-7-7-7-7-7-7-7/10-10~~
E------------------------

guitar 2:
E--------------------
B--------------------
G--------------------
D-2-2-2-2-2-2-2-5-5~~
A-0-0-0-0-0-0-0-3-3~~
E--------------------

"I said are you gonna be my girl?"

Guitar 1:
E------------------------------------------
B------------------5-----------------------
G------------------5-----------------------
D-7-7-7-x-7-7-7-7-7--7-7-7-7-x-7-7-7-7-7-5-
A-7-7-7-x-7-7-7-7-7--7-7-7-7-x-7-7-7-7-7-5-
E-5-5-5-x-5-5-5-5-5--5-5-5-5-x-5-5-5-5-5-5-

E----------------------------------------
B------------------5---5-7b-7b-5---------
G------------------5---5-7b-7b-5---------
D-7-7-7-x-7-7-7-7-7--7-----------7-7-5-7-
A-7-7-7-x-7-7-7-7-7--------------------7-
E-5-5-5-x-5-5-5-5-5--------------------5-

Guitar 2:
E-------------------------------------------
B---------------5-7-5-----------------------
G---------------5-7-5-----------------------
D-7-7-7-7-7-7-7-------7-7-7-7-x-7-7-7-7-7-5-
A-7-7-7-7-7-7-7---------7-7-7-x-7-7-7-7-7-5-
E-5-5-5-5-5-5-5---------5-5-5-x-5-5-5-5-5-5-

E----------------------------------------
B------------------5---5-7b-7b-5---------
G------------------5---5-7b-7b-5---------
D-7-7-7-x-7-7-7-7-7--7-----------7-7-5-7-
A-7-7-7-x-7-7-7-7-7--------------------7-
E-5-5-5-x-5-5-5-5-5--------------------5-


"Well it's a 1, 2, 3 
Take my hand and come with me
Becasue you look so fine
That i really wanna make you mine."

E----------------------
B------------------5---
G------------------5---
D-7-7-7-x-7-7-7-7-7--7-
A-7-7-7-x-7-7-7-7-7--7-
E-5-5-5-x-5-5-5-5-5--5-

"Well it's a 1, 2, 3 
Take my hand and come with me
Becasue you look so fine
That i really wanna make you mine."

E----------------------
B------------------5---
G------------------5---
D-7-7-7-x-7-7-7-7-7--7-
A-7-7-7-x-7-7-7-7-7--7-
E-5-5-5-x-5-5-5-5-5--5-


"I said you look so fine
That I really wanna make you mine."


E-----------------------
B-----------------------
G-----------------------
D-7-7-7-x-7-7-7-7-7-5-7-
A-7-7-7-x-7-7-7-7-7-5-7-
E-5-5-5-x-5-5-5-5-5-5-5-

"4, 5, 6
Come on and get your kicks
Now you don't need the money 
With a face like that do ya'?"

E----------------------
B------------------5---
G------------------5---
D-7-7-7-x-7-7-7-7-7--7-
A-7-7-7-x-7-7-7-7-7--7-
E-5-5-5-x-5-5-5-5-5--5-

E-------------------
B---5-7b-7b-5-------
G---5-7b-7b-5-------
D-7-----------7-7-5-
A-------------------

E----------------------------------------
B----------------------------------------
G----------------------------------------
D---------------x-12----------------x-12-
A-12-12-12-x-10-x-10--12-12-12-x-10-x-10-
E-10-10-10-x-8--------10-10-10-x-8-------

"Big Black Boots"    "long Brown Hair"  
[ Tab from: http://www.guitartabs.cc/tabs/j/jet/are_you_gonna_be_my_girl_tab_ver_13.html ]
E------------------------------------------
B------------------------------------------
G------------------------------------------
D---------------x-12-----------------------
A-12-12-12-x-10-x-10--12-12-12-12-12-12-12-
E-10-10-10-x-8--------10-10-10-10-10-10-10-
   
 "She's so cute with her... get back stare"


E-------------------------------------------
B-------------------------------------------
G-----------------------5-5-5-5-5-5-5-5-5-5-
D-7-7-7-7-7-7-7-7-7-7-7-5-5-5-5-5-5-5-5-5-5-
A-7-7-7-7-7-7-7-7-7-7-7-3-3-3-3-3-3-3-3-3-3-
E-5-5-5-5-5-5-5-5-5-5-5---------------------
  
  "I could see"          "You home with me"    


E---------------------------------------------
B---------------------------------------------
G-7-7-7-7-7-7-7-7-7-7-7-----------------------
D-7-7-7-7-7-7-7-7-7-7-7-7-7-7-7-7-7-7-7-7-7-7-
A-5-5-5-5-5-5-5-5-5-5-5-7-7-7-7-7-7-7-7-7-7-7-
E-----------------------5-5-5-5-5-5-5-5-5-5-5-
   
   "but you were with another man... yeah"


E-------------------------------------------
B-------------------------------------------
G-----------------------5-5-5-5-5-5-5-5-5-5-
D-7-7-7-7-7-7-7-7-7-7-7-5-5-5-5-5-5-5-5-5-5-
A-7-7-7-7-7-7-7-7-7-7-7-3-3-3-3-3-3-3-3-3-3-
E-5-5-5-5-5-5-5-5-5-5-5---------------------

"I know we ain't got"     "Much to say"         


E---------------------------------------------
B---------------------------------------------
G-7-7-7-7-7-7-7-7-7-7-7-----------------------
D-7-7-7-7-7-7-7-7-7-7-7-7-7-7-7-7-7-7-7-7-7-7-
A-5-5-5-5-5-5-5-5-5-5-5-7-7-7-7-7-7-7-7-7-7-7-
E-----------------------5-5-5-5-5-5-5-5-5-5-5-

"Before I let you get away... yeah"


guitar 1:
E------------------------
B------------------------
G------------------------
D-9-9-9-9-9-9-9-9/12-12~~
A-7-7-7-7-7-7-7-7/10-10~~
E------------------------

guitar 2:
E--------------------
B--------------------
G--------------------
D-2-2-2-2-2-2-2-5-5~~
A-0-0-0-0-0-0-0-3-3~~
E--------------------

"I said are you gonna be my girl?"


SOLO:

E-------------------------------
B-14-14-14-14-14-14-14-14-14-14-
G-14-14-14-14-14-14-14-14-14-14-
D-------------------------------
A-------------------------------
E------------------------------- X5

E-------------------------------
B-15-15-15-15-15-15-15-15-15-15-
G-14-14-14-14-14-14-14-14-14-14-
D-------------------------------
A-------------------------------
E-------------------------------

E-14-14-14-14-14-14-14-14-14-14-
B-15-15-15-15-15-15-15-15-15-15-
G-14-14-14-14-14-14-14-14-14-14-
D-------------------------------
A-------------------------------
E-------------------------------

E-------------------------------
B-14-14-14-14-14-14-14-14-14-14-
G-14-14-14-14-14-14-14-14-14-14-
D-------------------------------
A-------------------------------
E------------------------------- X2

E-------------------------------
B-15-15-15-15-15-15-15-15-15-15-
G-14-14-14-14-14-14-14-14-14-14-
D-------------------------------
A-------------------------------
E-------------------------------

E-14-14-14-14-14-14-14-14-14-14-
B-15-15-15-15-15-15-15-15-15-15-
G-14-14-14-14-14-14-14-14-14-14-
D-------------------------------
A-------------------------------
E-------------------------------

E-------------------------------
B-14-14-14-14-14-14-14-14-14-14-
G-14-14-14-14-14-14-14-14-14-14-
D-------------------------------
A-------------------------------
E-------------------------------

E-12-----------10------------------------12----------
B----10-12b-10----10-12b-10----10-12b-10----10-12b-10
G----------------------------9-----------------------
D----------------------------------------------------
A----------------------------------------------------
E----------------------------------------------------  

you play this 2 times. Then the Vocals come back in and 
you still play it, but it takes 3 guitarists to do the 
and the solo over it. 

Guitar 2:
E----------------------
B----------------------
G----------------------
D-7-7-7-7-7-7-7-7-7-7-7
A-7-7-7-7-7-7-7-7-7-7-7
E-5-5-5-5-5-5-5-5-5-5-5  X14

E---------
B-5-7-5---
G-5-7-5---
D-------7-  
A---------
E---------

at about the 15th time you do this inbetween the riffs


E-------------------
B---------------7-5-
G---------------7-5-
D-7-7-7-7-7-7-7-----  after that you do this a couple times. 
A-7-7-7-7-7-7-7-----
E-5-5-5-5-5-5-5-----


Both guitars:
E------------------------------------------
B------------------------------------------
G------------------------------------------
D---------------x-12-----------------------
A-12-12-12-x-10-x-10--12-12-12-12-12-12-12-
E-10-10-10-x-8--------10-10-10-10-10-10-10-
   
 "She's so cute with her... get back stare"


E-------------------------------------------
B-------------------------------------------
G-----------------------5-5-5-5-5-5-5-5-5-5-
D-7-7-7-7-7-7-7-7-7-7-7-5-5-5-5-5-5-5-5-5-5-
A-7-7-7-7-7-7-7-7-7-7-7-3-3-3-3-3-3-3-3-3-3-
E-5-5-5-5-5-5-5-5-5-5-5---------------------
  
  "I could see"          "You home with me"    


E---------------------------------------------
B---------------------------------------------
G-7-7-7-7-7-7-7-7-7-7-7-----------------------
D-7-7-7-7-7-7-7-7-7-7-7-7-7-7-7-7-7-7-7-7-7-7-
A-5-5-5-5-5-5-5-5-5-5-5-7-7-7-7-7-7-7-7-7-7-7-
E-----------------------5-5-5-5-5-5-5-5-5-5-5-
   
   "but you were with another man... yeah"


E-------------------------------------------
B-------------------------------------------
G-----------------------5-5-5-5-5-5-5-5-5-5-
D-7-7-7-7-7-7-7-7-7-7-7-5-5-5-5-5-5-5-5-5-5-
A-7-7-7-7-7-7-7-7-7-7-7-3-3-3-3-3-3-3-3-3-3-
E-5-5-5-5-5-5-5-5-5-5-5---------------------

"I know we ain't got"     "Much to say"         


E---------------------------------------------
B---------------------------------------------
G-7-7-7-7-7-7-7-7-7-7-7-----------------------
D-7-7-7-7-7-7-7-7-7-7-7-7-7-7-7-7-7-7-7-7-7-7-
A-5-5-5-5-5-5-5-5-5-5-5-7-7-7-7-7-7-7-7-7-7-7-
E-----------------------5-5-5-5-5-5-5-5-5-5-5-

"Before I let you get away... yeah"


E-----------------------
B-----------------------
G-----------------------
D-7-7-7-7-7-7-7-7-7-7-7-
A-7-7-7-7-7-7-7-7-7-7-7-
E-5-5-5-5-5-5-5-5-5-5-5-

      "Be my girl"        

E-------------------------------------------
B-------------------------------------------
G-5-5-5-5-5-5-5-5-5-5-7-7-7-7-7-7-7-7-7-7-7-
D-5-5-5-5-5-5-5-5-5-5-7-7-7-7-7-7-7-7-7-7-7-
A-3-3-3-3-3-3-3-3-3-3-5-5-5-5-5-5-5-5-5-5-5-
E-------------------------------------------

"be   my   girl"   "I said are you gonna be my girl?... yeah"

E-----------------------
B-----------------------
G-----------------------
D-------------5-7-7~~~~\
A-7-7-7-7-7-7-3-5-5~~~~\
E-5-5-5-5-5-5-----------
Comments