Jet - Are You Gonna Be My Girl Chords & Tabs

 

Are You Gonna Be My Girl Chords & Tabs

Jet Chords & Tabs

Version: 7 Type: Bass Tab 0 ratings
1 star 2 stars 3 stars 4 stars 5 stars
comments

Are You Gonna Be My Girl Bass Tab

Song: Are You Gonna Be My Girl?
Artist: Jet
Instrument: Electric Bass
Tabbed by: bassmastamitch
Mail me at: mrwaxwing123@gmail.com

Yo peoples. Recently Ive found that no one has seemed to find the correct bass tab for
awesome song. So, for the first time, Im giving back. Ive taken a bunch of tabs, so here
the CORRECT tab for AYGBMG. Why you ask? Ive played along with the track hundreds of 
See for yourself.

Intro (after tambourine starts the beat; hammer-ons are optional):
G:---------------------|
D:---------------------|
A:-0-0-0--0-0----0-3---|
E:------------0h3------|

G:---------------------|
D:---------------------|
A:-0-0-0--0-0----------|
E:------------0h3-0h3--|

G:---------------------|
D:---------------------|
A:-0-0-0--0-0----0-3---|
E:------------0h3------|

G:---------------------|
D:---------------------|
A:-0-3-5--5-3-0--0-----|
E:-----------------3---| x3


Verse (on little parts after the little singin’ diddies):
G:----------------------|
D:----------------------|
A:-0-0-0--0-0-----0-3-0-|
E:------------0h3-------| x2

[ Tab from: http://www.guitartabs.cc/tabs/j/jet/are_you_gonna_be_my_girl_btab_ver_7.html ]
Bass Interlude after Four, five six part:
G:----------------------|
D:----------------------|
A:----------------------|
E:-00-3-4---------------| Into final verse


Final Verse:
G:----------------------|
D:----------------------|
A:-0-0-0--0-0-----0-3-0-|
E:------------0h3-------|

G:---------------------|
D:---------------------|
A:-0-3-5--5-3-0--0-----|
E:-----------------3---|


Pre-Chorus:
G:----------0-----------|
D:-0-0-0----------------|
A:--------3-------------|
E:----------------------| x3

G:----------------------|
D:-0-0-0----------------|
A:--------3-------------|
E:----------------------|


Chorus:
G:------------------------------------------------2------------2-0-2--0---0-2-|
D:-----------------------------------22--------44---4-0-----------------2-----|
A:-0-0-0--0-0-00000---3-3-3--3-3-333----5-5-5------------0-0------------------|
E:----------------------------------------------------------------------------| x2


G:---------------0-0-|
D:-2--2--2-22222-----|
A:-------------------|
E:-------------------|
Y’all are smart. You can figure out the order. Otherwise, rate and comment, or drop me a
Otherwise, have fun. Great song to play and show off with, so there ye goes.
Comments