Jet - Are You Gonna Be My Girl Chords & Tabs

 

Are You Gonna Be My Girl Chords & Tabs

Jet Chords & Tabs

Version: 5 Type: Bass Tab 0 ratings
1 star 2 stars 3 stars 4 stars 5 stars
comments

Are You Gonna Be My Girl Bass Tab

LEGEND: h = HAMMERON
        * = SUSTAIN NOTE

intro:
G/---------------------|
D/---------------------|
A/-0-0-0**0-0-----0h3--|
E/------------0h3------|

G/---------------------|
D/---------------------|
A/-0-0-0**0-0----------|
E/------------0h3-0h3--|

G/---------------------|
D/---------------------|
A/-0-0-0**0-0-----0h3--|
E/------------0h3------|

G/--------------------|
D/-----0**0-----------|
A/-0-3------3-30------|
E/---------------3*---|
[ Tab from: http://www.guitartabs.cc/tabs/j/jet/are_you_gonna_be_my_girl_btab_ver_5.html ]
Verse:
G/------------------------|
D/------------------------|
A/-0-0-0**0-0-----0h3*-0--|
E/------------0h3---------|


Chorus:

G/---------------------------------------------------------------------------|
D/---------------------------------------0-0-0**0-0-0-0-0-0------------------|
A/-0-0-0**0-0-0-0-0-0-3-3-3**3-3-3-3-3-3--------------------0-0-0**0-0-0-0-0-|
E/---------------------------------------------------------------------------|

G/----------0-0-|
D/-0--0--0------|
A/--------------|
E/--------------|
Comments