Jet - All You Have To Do Chords & Tabs

 

All You Have To Do Chords & Tabs

Jet Chords & Tabs

Version: 2 Type: Tab 0 ratings
1 star 2 stars 3 stars 4 stars 5 stars
comments

All You Have To Do Tab

I tabbed this solo pretty accurate. Some notes have to be added, these were too
so at some points I tabbed the basics notes only. At the end of this solo, the lead-guitarist
with his solo at the background while the chorus starts, but that one is too vague to 
accurate. Hope you enjoy this one!

Tablature Legend
b   - bend
r   - bend release


E---------------------------------------|
B--------------------------12--14-------|
G--------------11--12--14---------------|
D--11--12--14---------------------------|
A----12--12--12--12--10--10--10--10-----|
E---------------------------------------|

E-----------------------------17--------------------|
B--15-15--15-15-15--15---17b19--19r17--15-17-15-14--|
G--16-16--16-16-16--15------------------------------|
D---------------------------------------------------|
A---------------------------------------------------|
E---------------------------------------------------|
[ Tab from: http://www.guitartabs.cc/tabs/j/jet/all_you_have_to_do_tab_ver_2.html ]
E------------------------------------------------|
B--15-14-15b17r15-14------15----15b17r15---------|
G--------------------13------13----------13-12---|
D------------------------------------------------|
A------------------------------------------------|
E------------------------------------------------|

E---------------17-------------------------------|
B--15-15---17b19--19r17--15-17-15----------------|
G------------------------------------------------|
D------------------------------------------------|
A------------------------------------------------|
E------------------------------------------------|

E--17b19r17-14-15-14-------------17-------------------|
B--------------------17-15--17b19--19r17-15-17b19-15--|
G-----------------------------------------------------|
D-----------------------------------------------------|
A-----------------------------------------------------|
E-----------------------------------------------------|

E-------------------------------------------------15-17-------------|
B--------15-15----15-15------15----15--17b19--17b19-------17b19-15--|
G--14-16-------16-------16------16----------------------------------|
D-------------------------------------------------------------------|
A-------------------------------------------------------------------|
E-------------------------------------------------------------------|
Comments