Jet - All You Have To Do Chords & Tabs

 

All You Have To Do Chords & Tabs

Jet Chords & Tabs

Version: 1 Type: Bass Tab 0 ratings
1 star 2 stars 3 stars 4 stars 5 stars
comments

All You Have To Do Bass Tab

Artist - Jet
Album- Shine On
Song - All You Have to Do

                              Bass Tab for All You Have to Do
0:03
G--------------------------------------------------------------------------]
D--------6-6-6-6-------6--6-6------6-6-6-6---------------------------------]
A--------------------------------------------------------------------------]
E---1/3-3---------/3-3--------/3-3----------3-0-1-2------------------------]
                                                       (slide and fade)
G--------------------------------------------------------------------------]
D-------------------------------7-5----------------------------------------]
A---0-0-0-0---0-0-0-0---0-0-0-0----7-5-3-3-3-3-3-3-3-3-3-/3-/3-/3-/3-/3-/3-]
E----------0---------0-----------------------------------------------------]

Piano and Vocals untill 0:43 where bass and guitar come in
0:43                                     (fade out)
G----------------------------------------------------]
D----------------------------------------------------]
A--3----3-5-2----2-3-1---1--2---2--3-3-/3-/3-/3-/3---]
E----------------------------------------------------]
"Oooh"
G---------------------------]
D---------------------------]
A---------------------------]  repeat 2 times total
E--3---3-1----1-0---0-0-0-1-]

G----------------------------------------------------]
D----------------------------------------------------]
A--3----3-5-2----2-3-1---1--2---2--3-3-/3-/3-/3-/3---]
E----------------------------------------------------]

G--------------------------------------------------------------------------]
D--------6-6-6-6-------6--6-6------6-6-6-6---------------------------------]
A--------------------------------------------------------------------------]
E---1/3-3---------/3-3--------/3-3----------3-0-1-2------------------------]
                                                       (slide and fade)
G--------------------------------------------------------------------------]
D-------------------------------7-5----------------------------------------]
A---0-0-0-0---0-0-0-0---0-0-0-0----7-5-3-3-3-3-3-3-3-3-3-/3-/3-/3-/3-/3-/3-]
E----------0---------0-----------------------------------------------------]

G----------------------------------------------]
D----------------------------------------------]
A----------------------------------------------] repeat 3 times total
E--3---3-1-3-1---1-0-1-0---0-1-0-1-0-1-1-2-2-3-]

G----------------------------------------------------]
D----------------------------------------------------]
A--3----3-5-2----2-3-1---1--2---2--3-3-/3-/3-/3-/3---]
E----------------------------------------------------]

"All you have to do"
G--------------------------------------------------------------------------]
D--------6-6-6-6-------6--6-6------6-6-6-6---------------------------------]
A--------------------------------------------------------------------------]
E---1/3-3---------/3-3--------/3-3----------3-0-1-2------------------------]
                                                       (slide and fade)
G---------------------------------------------------------]
D-------------------------------7-5-----------------------]
A---0-0-0-0---0-0-0-0---0-0-0-0----7-5-3-3-3-3------------]
E----------0---------0--------------------------0-0-1-2---]
[ Tab from: http://www.guitartabs.cc/tabs/j/jet/all_you_have_to_do_btab.html ]
G------//7-7-7-7----///7-7-7---/7-7-7-7--/7-/7-/7-----]
D---0-0----------0-0--------0-0--------0-0--0--0------]
A-----------------------------------------------------]
E-----------------------------------------------------]

G---------------------------------------------------------------]
D-------2--2-2------2--2-2-2-----2--2-2-----2-0-----------------]
A----------------------------------------------3-3-3-3-3-3-3-3--]
E---0-0----------0-0----------0-0--------0-0--------------------]

G------------------------------------------------]
D------------------------------------------------]
A------------------------------------------------]
E----/5-5-5----/5-5-5-5----/5-5-5-5----/5-5-5-5--]

G------------------------------------------------------------]
D------------------------------------------------------------]
A---/2----2--2-2-1---1-1-1--0--0--0--0--0--------------------]
E-----------------------------------------0--0--0--0--0-2-3--]

G----------------------------------------------------------------------]
D--------------------------------------------2-2-2-2--4-4-4-4-5-5-5-5--]
A-------------------2-2-2-2--4-4-4-4/5-5-5-5---------------------------]
E--3-3-3-3--5-5-5-5----------------------------------------------------]

(vocals come back in)
"All You Have to dooo..."

G------//7-7-7-7----///7-7-7---/7-7-7-7--/7-/7-/7-----]
D---0-0----------0-0--------0-0--------0-0--0--0------]
A-----------------------------------------------------]
E-----------------------------------------------------]

G-----------------------------------------------------------------]
D-------2--2-2------2--2-2-2-----2--2-2-----2-0-0-2-0-------------]
A----------------------------------------------2-----2--3-3-3-3-3-]
E---0-0----------0-0----------0-0--------0-0----------------------]

G--------------------------------------------------------------------------]
D--------6-6-6-6-------6--6-6------6-6-6-6---------------------------------]
A--------------------------------------------------------------------------]
E---1/3-3---------/3-3--------/3-3----------3-0-1-2------------------------]
                                                       (slide and fade)
G---------------------------------------------------------]
D-------------------------------7-5-----------------------]
A---0-0-0-0---0-0-0-0---0-0-0-0----7-5-3-3-3-3------------]
E----------0---------0--------------------------0-0-1-2---]

g------//7-7-7-7----///7-7-7---/7-7-7-7--/7-/7-/7-----]
D---0-0----------0-0--------0-0--------0-0--0--0------]
A-----------------------------------------------------]
E-----------------------------------------------------]

G-------------------------------------------------------------------------]
D-------2--2-2------2--2-2-2-----2--2-2-----2-0-0-2-0---------------------]
A----------------------------------------------2-----2--3-3-3-3-3-3-3-3---]
E---0-0----------0-0----------0-0--------0-0----------------------------3-]

Bass stops at this point, but if it were to keep playing it would go like this...

G----------------------------------------------------------]
D----------------------------------------------------------]
A----------------0------0-----0--------3-----3------3------]
E---3------3---3----------------------------------------3--]

Thats pretty much it! Good Luck!
Thank you!-Comments and Corrections welcome...

Signed JB
Comments