Jesus Lizard - Puss Chords & Tabs

 

Puss Chords & Tabs

Jesus Lizard Chords & Tabs

Version: 1 Type: Tab 0 ratings
1 star 2 stars 3 stars 4 stars 5 stars
comments

Puss Tab

   
#----------------------------------PLEASE NOTE---------------------------------#
#This file is the author's own work and represents their interpretation of the #
#song. You may only use this file for private study, scholarship, or research. #
#------------------------------------------------------------------------------##
#

From: Eddie Rivas 
Date: Feb 20, 1996 15:58:14
Subject: PUSS.tab


PUSS by THE JESUS LIZARD
from their album LIAR and
THE JESUS LIZARD/NIRVANA split 7"
©1993  THE JESUS LIZARD (BMI)

Tab by Eddie Rivas
hrivas@calstatela.edu
credit also goes to Vic Gonzales


This is a fairly simple song to play the trick is to
hold down the major chords with your first and third
finger and then hit the high notes with your pinky.
Other than that there shouldn't be any problems
learning how to play this.


Intro

     (C)Hold          (A#)Hold
e---------11-11-11---------11-11-11-11------
B---------11-11-11---------11-11-11-11------
G---------10-10-10---------8--8--8--8-------
D----10----------------8--------------------
A----10----------------8--------------------
E----8-----------------6--------------------


Get me something to stop the bleeding.......

Palm Mute                 2nd time verse is played add:
e----------------------------------------------11-10-8--------
B----------------------------------------------11-10-8-------
G----------------------------------------------8--8--8------
D----10-10-10-10-10-10-10-10-8-8-8-8-8-8-8-8-------------
A----10-10-10-10-10-10-10-10-8-8-8-8-8-8-8-8-------------
E----8--8--8--8--8--8--8--8--6-6-6-6-6-6-6-6-------------



[ Tab from: http://www.guitartabs.cc/tabs/j/jesus_lizard/puss_tab.html ]
     (C)Hold          (A#)Hold        (A)Hold   (G#)Hold
e---------11-11-11---------11-11-11-11----8-8-8----8-8-8-8
B---------11-11-11---------11-11-11-11----8-8-8----8-8-8-8
G---------10-10-10---------8--8--8--8-----7-7-7----6-6-6-6
D----10----------------8----------------7--------6--------
A----10----------------8----------------7--------6--------
E----8-----------------6----------------5--------4--------

REPEAT THEN......

   G Major

e--3-3-3-3-3-3-3-3---------------
B--3-3-3-3-3-3-3-3---------------
G--4-4-4-4-4-4-4-4---------------
D--5-5-5-5-5-5-5-5---------------
A--5-5-5-5-5-5-5-5---------------
E--3-3-3-3-3-3-3-3---------------


Get him out of the trunk...........Get him out..............
e------------------------------------------------------------
B-----------6----------------6---------------6-------------6-
G-2-2--5-5--6------2-2--5-5--6-----7-7--5-5--6---7-7--5-5--6-
D-3-3--6-6--6------3-3--6-6--6-----8-8--6-6--6---8-8--6-6--6-
A-3-3--6-6--4------3-3--6-6--4-----8-8--6-6--4---8-8--6-6--4-
E-1-1--4-4---------1-1--4-4--------6-6--4-4------6-6--4-4----


Get him out of the trunk.........Get him out.notice this change
e---------------------------------------------------------------
B-----------6----------------6---------------6----------------11-
G-2-2--5-5--6------2-2--5-5--6-----7-7--5-5--6---7-7--10-10--11-
D-3-3--6-6--6------3-3--6-6--6-----8-8--6-6--6---8-8--11-11--11-
A-3-3--6-6--4------3-3--6-6--4-----8-8--6-6--4---8-8--11-11--9--
E-1-1--4-4---------1-1--4-4--------6-6--4-4------6-6--9--9-------


Now for the big Solo*

* a suggestion to play this in order to let the notes ring out.
put your first finger across the 12th fret on the 1st and 2nd strings.
second (middle) finger on 3rd string 13th fret and use thrid finger to pull
off the notes on ther 2nd sting.


e-----12--------------
B--14---14-12---12----
G-------------13------ repeat a bunch of times
D---------------------
A---------------------
E---------------------


That's it.

email me if you're a Jesus Lizard fan.

"Just when you're about to learn how to smile again I'm going
to be the one who teaches you how to cry"
                            - Elegy, the Jesus Lizard

hrivas@calstatela.edu

Comments