Jesus Lizard - Low Rider Chords & Tabs

 

Low Rider Chords & Tabs

Jesus Lizard Chords & Tabs

Version: 1 Type: Bass Tab 0 ratings
1 star 2 stars 3 stars 4 stars 5 stars
comments

Low Rider Bass Tab

Group: The Jesus Lizard
Song:  Low Rider
Album: Down
Tabbed:Don Murta 
[ Tab from: http://www.guitartabs.cc/tabs/j/jesus_lizard/low_rider_btab.html ]
Part 1:
G|-----------------------|
D|-----3-2--------2-0----|
A|---4-----4~---4-----2~-|
E|-2----------2----------|

Part 2: (Slow)
G|-0-------0-------|
D|---2-0-----2-0---|
A|-------2---------|
E|---------------2-|

Comments