Jesse Sutton - Open To Six Chords & Tabs

 

Open To Six Chords & Tabs

Jesse Sutton Chords & Tabs

Version: 1 Type: Tab 0 ratings
1 star 2 stars 3 stars 4 stars 5 stars
comments

Open To Six Tab

Open To Six   Intro

By Jesse Sutton

E------------------------------------------------------------------|
B------------------6-(5)-(6)-6-/-8--8-6----------------------------|
G----------------7-----------5-/-7--7---7-(8)-(7)------------------|
D--------------5----------------------------------10-(8)-(10)--8/5-|
A--------5-7-5-----------------------------------------------------|
E--0-(5)-----------------------------------------------------------|

E--------------------------5-/-7------3-/-5-----------------------------|
B------------------------6-7-/-9---9--5-/-7-----6-(5)-------------------|
G--------5-------------5---------9----------7-5-------7-----------5-(7)-|
D--5-------(7)-5-(7)-7----------------------------------7-(5)-(7)-------|
A----(7)----------------------------------------------------------------|
E-----------------------------------------------------------------------|

E--------------------------------------------------------------------------|
B----------------------------------------------3---------------------------|
G--------------------------------------------2---2-4/2---------------------|
D-------2-------------------0--4-2-0-2-2-2/4-----------2-0-----------------|
A-2-(4)---4-----------0-(2)--------------------------------2-(3)-(2)-------|
E-----------2-(3)-(2)------------------------------------------------0-3/5-|
[ Tab from: http://www.guitartabs.cc/tabs/j/jesse_sutton/open_to_six_tab.html ]
E---------5-------------------------------------------------|
B---6-8-6---6-6-(8)-6-------5-5-(6)-(5)---------------------|
G-7---------------------5-7-------------7-5-----------5-(7)-|
D---------------------5---------------------5-(7)-(5)-------|
A-----------------------------------------------------------|
E-----------------------------------------------------------|

E------------------------------------|
B------------------------------1-(0)-|
G-5/2-2-(0)--------------------2-----|
D-----------2-(0)------------2-------|
A-----------------3-(2)-(0)--0-------|
E------------------------------------|

E--------------------------------------------------3/5-----8/10---8-5////-|
B------------------------------------5-(6)-(5)---3--------------8---------|
G-------------------------------------------------------------------------|
D-----------------------5-5-(7)-5--------------0--------------------------|
A-2-0-------------3-(5)-----------5/---------------------7----------------|
E-----0-(3)-(5)-5--------------------------------------7------------------|


Legend:

( )- means either hammer or pull-off
 / - means to slide either up or down


The reason this is only the intro is because I am still working on writing the type of guitar style and 
that I want, and I want to make sure it is just how I want it. It isn't even actually a complete song at 
but I just thought I would put it on here for something to do and to show my work to other potentially fantastic guitar players. Remember, music is the only thing that makes life worth living, and don't eat yellow 
Farewell...
Comments