Jesse Spencer - Molly Smiles Chords & Tabs

 

Molly Smiles Chords & Tabs

Jesse Spencer Chords & Tabs

Version: 1 Type: Tab 0 ratings
1 star 2 stars 3 stars 4 stars 5 stars
comments

Molly Smiles Tab

   
              |--------------------------------------------------------|
              |--------------->skaterboi133@hotmail.com<---------------|
              |--------------------------------------------------------|

Artist: Jesse Spencer
Song: Molly Smiles
Album: Uptown Girls
Tabed By: Christian Desplats (skaterboi133@hotmail.com)


( 1 )                                ( 2 )

1/-------3------3----/
2/-----3---3------3--/
3/---2-------2-------/
4/-0-----------------/
5/-------------------/
6/-------------------/

( 2 )

1/-------2------2----/
2/-----3---3------3--/
3/---2-------2-------/
4/-0-----------------/
5/-------------------/
6/-------------------/

( 2 )

1/-------3------3----/
2/-----3---3------3--/
3/---2-------2-------/
4/-0-----------------/
5/-------------------/
6/-------------------/

( 3 )

1/-------------------/
2/-------3------3----/
3/-----0---0------0--/
4/---2-------2-------/
5/-3-----------------/
6/-------------------/

( 4 )

1/-------------------/
2/-------3------3----/
3/-----0---0------0--/
4/---0-------0-------/
5/-------------------/
6/-3-----------------/


     ---->Intro<----

( 1 ) - ( 2 ) - ( 1 ) - ( 2 )


( 1 )               ( 2 )   ( 1 )                    ( 2 )
Daddy's little girl         paints the world with her magic wand
( 1 )                ( 2 )  ( 1 )                   ( 2 )              ( 3 )
Daddy's little child        breathes new life to the morning time for me
( 4 )             ( 3 )               ( 4 )
      Though we're apart, her thoughts follow me


             ---->Coro<----
[ Tab from: http://www.guitartabs.cc/tabs/j/jesse_spencer/molly_smiles_tab.html ]
              D           C              D
When I come home, Molly smiles with the dawn
        C              G
Molly smiles, and she radiates the glow around her halo
D          C            D
When she plays, Molly smiles
            C             G
On a summer day, Molly smiles
       C           ---->intro<----
A new day, Molly smiles



( 1 )               ( 2 )    ( 1 )         ( 2 )
Daddy's little girl         ties a ribbon around my heart
( 1 )                ( 2 )  ( 1 )                ( 2 )                 ( 3 )
Daddy's little child        waves goodbye to the ocean tide that sweeps me
( 4 )              ( 3 )          ( 4 )
      Though we're apart, she's a part of me


            ---->Coro<----      

D        C             D
Molly smiles with the dawn
        C              G
Molly smiles, and she radiates the glow around her halo
D          C            D
When she plays, Molly smiles
            C             G
On a summer day, Molly smiles
       C           ---->intro<----
A new day, Molly smiles


       ---->Bridge<----

Am - C - G - D - Am - C - G - ( 1 ) - ( 2 ) - ( 1 )

              D           C              D
When I come home, Molly smiles with the dawn
        C              G
Molly smiles, and she radiates the glow around her halo
D          C            D
When she plays, Molly smiles
            C             G
On a summer day, Molly smiles
       C           ---->intro<----
A new day, Molly smiles


Am                       C
When the days have gone grey,
                           ( 4 ) - ( 1 ) - ( 4 ) - ( 1 ) - G
Nothing's wrong when Molly smiles


              |--------------------------------------------------------|
              |--------------->skaterboi133@hotmail.com<---------------|
              |--------------------------------------------------------|
Comments