Jesse Mccartney - Beautiful Soul Chords & Tabs

 

Beautiful Soul Chords & Tabs

Jesse Mccartney Chords & Tabs

Version: 2 Type: Tab 0 ratings
1 star 2 stars 3 stars 4 stars 5 stars
comments

Beautiful Soul Tab

Author:  Mat
Standard Tuning
Please Rate - This seems the to be the best I have seen.

[ Tab from: http://www.guitartabs.cc/tabs/j/jesse_mccartney/beautiful_soul_tab_ver_2.html ]
E--------0------------x---x-----------0-------2---x---x----------0-----------|
B----------------0----x---x-------------------3---x---x------------------0---|
G------2---------4--- x---x---------2---------2---x---x--------2---------4---|
D----2-----------2--- x---x-------2-----------0---x---x------2-----------2---|
A--0-------------x--- x---x-----------------------x---x------------------x---|
E----------------4--- x---x----2------------------x---x----2-------------4---|


[-----x---x--------------------------|
[-----x---x--------------------------|
[-----x---x------------2-----2---2---|
[-----x---x----------2-----2-----0---|
[-----x---x-------0------4-----------|
[-----x---x--------------------------|
Comments