Jersey - This Town Chords & Tabs

 

This Town Chords & Tabs

Jersey Chords & Tabs

Version: 1 Type: Bass Tab 0 ratings
1 star 2 stars 3 stars 4 stars 5 stars
comments

This Town Bass Tab

* - Dont play second time

Intro/Verse 1  x2

G|----------------------------------------------------------998877*---------|
D|--------------------------------------------------------------------------|
A|--777----555-----------777777----777----555-----------7777----------------|
E|----------------555----------------------------555------------------------|

Chorus 1  x2
G|--------------------------------------------------------------------------|
D|------76---------76---------76---------76---------------------------------|
A|777777-----555555----------------777777-----------------------------------|
E|----------------------555555----------------------------------------------|

Verse 2
G|--------------------------------------------------------------------------|
D|----77-----------------77-----------------77---------------77777777-------|
A|55------7-77-7-77--55------7-77-7-77--55------77--55555555----------------|
E|--------------------------------------------------------------------------|

Chorus 2  x4
G|--------------------------------------------------------------------------|
D|--------------------------------------------------------------------------|
A|77777777-55555555----------77777777---------------------------------------|
E|------------------55555555------------------------------------------------|
[ Tab from: http://www.guitartabs.cc/tabs/j/jersey/this_town_btab.html ]
Verse 3
G|-------------------998877*------------------------------------------------|
D|--------------------------------------------------------------------------|
A|777--555-------777--------------------------------------------------------|
E|----------555-------------------------------------------------------------|

Chorus 1

Verse 2

Chorus 2  x2

Chorus 1  x2

Fill before Solo
G|--------------------------------------------------------------------------|
D|---------77777777---------------------------------------------------------|
A|55555555------------------------------------------------------------------|
E|--------------------------------------------------------------------------|

Solo
G|--------------777777-999999-----------------------------------------------|
D|-------777777-----------------------------777777---------------777777-----|
A|777777----------------------777777-555555--------777777-777777------------|
E|--------------------------------------------------------------------------|

G|777777-999999-999999-777777---------------9-------------------------------|
D|----------------------------777777----------------------------------------|
A|-----------------------------------777777---------------------------------|
E|--------------------------------------------------------------------------|

Final Chorus
G|--------------------------------------------------------------------------|
D|--76---76---76---76-------------------------------------------------------|
A|7----5---------7----------------------------------------------------------|
E|----------5---------------------------------------------------------------|
(You can play either the final chorus or chorus 1 for the end.)

This is my first tab and i love Jersey so i thought this would be a good song to tab
out esspecailly since there arent many Jersey tabs. Anyway if i didnt get the
rhythm exactly right just listen and you can easily get it.
Comments