Jersey - Saturday Night Chords & Tabs

 

Saturday Night Chords & Tabs

Jersey Chords & Tabs

Version: 1 Type: Tab 0 ratings
1 star 2 stars 3 stars 4 stars 5 stars
comments

Saturday Night Tab

    K, so im pretty sure this is all right...but i think theres 2 guitars sooooo...
its kinda all mixed together.. or ..most of it anyway. Also in the pre-chorus thing
or watever theres this weird instrument an im not sure wat it is but i put it
down anyway.In this tab, the ~ things mean let the not ring.

If u have any suggestions or corrections email me at: ngaire11@hotmail.com 
..I think thats all so... here it is:
 
intro:
e-------------------------------------------------------------------------|
B-------------------------------------------------------------------------|
G----------------------------0--0------------------0--0-------------------|
D----0--0--0---0--0--0--------------4-----------0-----------4-------------|
A-3--5--5--5---5--5--5------------------5-------5------------------5------|
E----5--5--5---5--5--3--------------------------5-------------------------|

                                            verse: play twice
e------------------------------------------|------------------------------|
B------------------------------------------|------------------------------|
G------0--0----------------0--0------------|------------------------------|
D--5---------4--0--0----------------4------|--0--0--0----0--0--0----------|
A--3---------------5--------------------5--|--5--5--5--5-5--5--5----------|
E------------------5-----------------------|--5--5--5----5--5--5----------|

i think theres 2 guitars here but i only did 1..do ur best
[ Tab from: http://www.guitartabs.cc/tabs/j/jersey/saturday_night_tab.html ]
e------------------------------------------------------------------------|
B------------------------------------------------------------------------|
G--0---4--4--4--4--4--4--4----2--2--2--2--2--2--2--2---------------------|
D--0---5--5--5--5--5--5--5----4--4--4--4--4--4--4--4---------------------|
A--5---------------------------------------------------------------------|
E--3---------------------------------------------------------------------|

e|------------------------------------------------------------------------|
B|------------------------------------------------------------------------|
G|------------------------------------------------------------------------|
D|--------0---------0------------0--------0-----------0--------0----------|
A|--2--2--2---2--2--2--2---2--2--2--2--2--2--2--3--3--3--3--3--3--3--3-3-3|
E|--3--3--3---3--3--3--3---0--0--0--0--0--0--0--5--5--5--5--5--5--5--5-5-5|

Chorus:                               x2
e|----------------------------------|-------------------------------------|
B|----------------------------------|-------------------------------------|
G|----------------------------------|-----0---0--------------0------0-----|
D|--0---0---0---0-----0---0---0---0-|-0-0---4---4-----0---0------4-----4--|
A|--2---2---2---2-----0---0---0---0-|-2-2-------------0---0---------------|
E|--3---3---3---3-----2---2---2---2-|-3-3-------------2---2---------------|


sun goes down part
e|----------------------------------------|
B|--------------7\------------------------|
G|--------------7\------------------------|
D|--0~~~~~~~~~--------5--5--5--5--5--5----|
A|--5~~~~~~~~~--------5--3--5--3--5--3----|
E|--5~~~~~~~~~----------------------------|

this is where my speakers messed up soooo i couldn't finish it ..sadly. When
i can ill finish. 4 now...i hope u understand it.
Comments