Jersey - Saturday Night Chords & Tabs

 

Saturday Night Chords & Tabs

Jersey Chords & Tabs

Version: 1 Type: Bass Tab 0 ratings
1 star 2 stars 3 stars 4 stars 5 stars
comments

Saturday Night Bass Tab

****************************************************************************
Band: Jersey
Song: Saturday Night
Tunning: Standard EADGBe
Tabbed by: trevor a.k.a. blinkrocker182
Comments: This is an easy song and good song to play If you like it rate it n then email 
at foverino2002@nerscape.net or ivbeenblinked182@netscape.net and my im is guitarplayr92489
****************************************************************************
intro:
G----------------------------0--0------------------0--0-------------------|
D-----------------------------------4-----------------------4-------------|
A-3-------------------------------------5--------------------------5------|
E----5--5--5---5--5--3--------------------------5-------------------------|

verse:x2
G------0--0----------------0--0------------------------------------------|
D------------4--0-------------------4------------------------------------|
A--3------------------------------------5-------------5------------------|
E------------------5-------------------------5--5--5----5--5--5----------|

[ Tab from: http://www.guitartabs.cc/tabs/j/jersey/saturday_night_btab.html ]
G------------------------------------------------------------------------|
D------5--5--5--5--5--5--5----4--4--4--4--4--4--4--4---------------------|
A------------------------------------------------------------------------|
E--3---------------------------------------------------------------------|


G|-------------------------------------------------------------------------|
D|-------------------------------------------------------------------------|
A|-------------------------------------------------------------------------|
E|--3--3--3---3--3--3--3---0--0--0--0--0--0--0--5--5--5--5--5--5--5--5-5-5-|

Chorus:x2

G|---------------------------------------0---0--------------0------0-----|
D|-----------------------------------------4---4---------------4-----4---|
A|-----------------------------------------------------------------------|
E|--3---3---3---3-----2---2---2---2--3-3-------------2---2---------------|

G|-----------------------7-------------------------|
D|-------------------------------------------------|
A|-----------------------------5--3--5--3--5--3----|
E|--5-5-5-5-5-5-5-5-5-5----------------------------|
Comments