Jerry Jeff Walker - Mr Bojangles Chords & Tabs

 

Mr Bojangles Chords & Tabs

Jerry Jeff Walker Chords & Tabs

Version: 1 Type: Tab 0 ratings
1 star 2 stars 3 stars 4 stars 5 stars
comments

Mr Bojangles Tab

-------------------------------------------------------------------------------
			     MR BOJANGLES - Jerry Jeff Walker
-------------------------------------------------------------------------------
Tabbed by:Jeremy
Email:jcole999@hotmail.com
[ Tab from: http://www.guitartabs.cc/tabs/j/jerry_jeff_walker/mr_bojangles_tab.html ]
Tuning:normal
Riff one play this a couple of times
e|--------0---------------------------------------------------------------------|
B|--------1---------------------------------------------------------------------|
G|--------0---------------------------------------------------------------------|
D|--------2---------------------------------------------------------------------|
A|--0-2-3-3---------------------------------------------------------------------|
E|3-------x---------------------------------------------------------------------|
then at the end of the lines when he says"in worn out shoes"
e|1----3---------------------------------------------------------------------|
B|1----0---------------------------------------------------------------------|
G|2----0---------------------------------------------------------------------|
D|3----0---------------------------------------------------------------------|
A|-----2---------------------------------------------------------------------|
E|-----3---------------------------------------------------------------------|

Im still figuring the rest out right now this should get you started
Comments