Jerry Cantrell - Satisfy Chords & Tabs

 

Satisfy Chords & Tabs

Jerry Cantrell Chords & Tabs

Version: 1 Type: Tab 0 ratings
1 star 2 stars 3 stars 4 stars 5 stars
comments

Satisfy Tab

   
Jerry Cantrell
Satisfy

Tuning: 
1/2 step down

Notes: 
This is a pretty easy song to play, but I just can't imagine anyone
duplicating all the layered guitars, especially in a live situation.
If you listen closely to the main riff, you'll hear what sounds like
a clean electric doubling and filling in parts for the overdriven
guitar.  Plenty of implied tonality.  Anyways, this isn't complete
as it is missing nearly all the lead guitar fills and the arpeggios
aren't note for note.  The only reason I even bothered to release
this is to help get you started.  If you're up to the challenge, post
additions and corrections.  You can make this sound pretty damn good
if you're willing to improvise a little bit.  :)

Intro: 
   [Gtr.1 Electric w/ Moderate Overdrive]
Eb:----------------|----------------|----------------|----------------|
Bb:----------------|-------2--------|----------------|-------0--------|
Gb:---------4-5----|-----4-----4----|---------2-3----|-------1---1----|
Db:-------6-6-6-6--|---4---------4--|--(4)--4-4-4-4--|-----2-------2--|
Ab:-----6---------6|-2-------------2|---*-4---------4|---2-----------2|
Eb:-4--------------|----------------|-2-*------------|-0--------------|
                                        *
                                        * * Gtr.1 : This is very subtle,
                                            to the point where I wonder
                                            if it was intentional.

Eb:----------4-----|----------------|---------X------|----------------|
Bb:--------4----4--|----6-----------|-------X--------|------------9\--|
Gb:------6---------|----------------|-----X-----9----|---------9--9\--|
Db:----6-----------|6---------------|---X------------|---------9--9\--|
Ab:-4--------------|--4-------------|/7--------------|---------7--7\--|
Eb:----------------|----------------|----------------|----------------|

   [Gtr.2 Electric w/ Low Volume]
Eb:----------------|----------------|---------------------------------|
Bb:----------------|----------------|---------------------------------|
Gb:----------------|----------------|---------------------------------|
Db:----------------|----------------|---------------------------------|
Ab:----------------|----------------|--------------b7r6-\4-\2---------|
Eb:----------------|----------------|--------------*------------------|
                                                   *
                                                   * Gtr.2 : Prebend from
                                                     6 to 7 before sounding
                                                     the note.

Verse: 
   [Gtr.1 Electric w/ Moderate Overdrive]
Eb:----------------|-----------2----|----------------|----------------|
Bb:----------------|-------2-----2--|----------------|-------0--------|
Gb:---------4-5----|-----4---------4|---------2-3----|-------1---1----|
Db:-------6-6-6-6--|---4------------|-------4-4-4-4--|-----2-------2--|
Ab:-----6---------6|-2--------------|-----4---------4|---2-----------2|
Eb:-4--------------|----------------|-2--------------|-0--------------|
[ Tab from: http://www.guitartabs.cc/tabs/j/jerry_cantrell/satisfy_tab.html ]
Eb:----------4-----|----------------|---------7------|----------------|
Bb:--------4----4--|----6-----------|-------7--------|------------9\--|
Gb:------6---------|----------------|---9-------9----|---------9--9\--|
Db:----6-----------|6---------------|-----9----------|---------9--9\--|
Ab:-4--------------|--4-------------|/7--------------|---------7--7\--|
Eb:----------------|----------------|----------------|----------------|

   [Gtr.2 Electric w/ Low Volume]
Eb:----------------|----------------|---------------------------------|
Bb:----------------|----------------|---------------------------------|
Gb:----------------|----------------|---------------------------------|
Db:----------------|----------------|---------------------------------|
Ab:----------------|----------------|--------------b7r6-\4-\2---------|
Eb:----------------|----------------|--------------*------------------|
                                                   *
                                                   * Gtr.2 : Prebend from 
                                                     6 to 7 before sounding
                                                     the note.

Chorus: 
   [Gtr.1 Electric w/ Moderate Overdrive]
Eb:------------------------------|
Bb:---9----8-8-8-8-8-8-8-8-8-8-8-| Repeat
Gb:---7----6-6-6-6-6-6-6-6-6-6-6-| Three
Db:-9-9-9-8--8-8-8-8-8-8-8-8-8-8-| Times
Ab:-7-7-7-6--6-6-6-6-6-6-6-6-6-6-|
Eb:------------------------------|

Eb:------------------------------|
Bb:---9----8-8-8-8-8-8-----------|
Gb:---7----6-6-6-6-6-6-9---------|
Db:-9-9-9-8--8-8-8-8-8-9---------|
Ab:-7-7-7-6--6-6-6-6-6-7---------|
Eb:--------------------0---------|

Interlude: 
   [Gtr.1 Electric w/ Moderate Overdrive]
Eb:----------------|-----------2----|----------------|----------------|
Bb:----------------|-------2-----2--|----------------|-------0--------|
Gb:---------4-5----|-----4---------4|---------2-3----|-------1---1----|
Db:-------6-6-6-6--|---4------------|-------4-4-4-4--|-----2-------2--|
Ab:-----6---------6|-2--------------|-----4---------4|---2-----------2|
Eb:-4--------------|----------------|-2--------------|-0--------------|

Eb:----------4-----|----------------|---------7------|----------------|
Bb:--------4----4--|----6-----------|-------7--------|------------9\--|
Gb:------6---------|----------------|---9-------9----|---------9--9\--|
Db:----6-----------|6---------------|-----9----------|---------9--9\--|
Ab:-4--------------|--4-------------|/7--------------|---------7--7\--|
Eb:----------------|----------------|----------------|----------------|

   [Gtr.2 Electric w/ Low Volume]
Eb:----------------|----------------|-------11------11------11--------|
Bb:----------------|----------------|---12-----12------12------12--12-|
Gb:----------------|----------------|-13--13-----13------13------13---|
Db:----------------|----------------|---------------------------------|
Ab:----------------|----------------|---------------------------------|
Eb:----------------|----------------|---------------------------------|

The rest is up to you-the viewer. ;)


/ = slide up
\ = slide down
X = play 'note' with heavy damping
b = bend
r = release
Comments