Jerry Cantrell - My Song Chords & Tabs

 

My Song Chords & Tabs

Jerry Cantrell Chords & Tabs

Version: 2 Type: Tab 0 ratings
1 star 2 stars 3 stars 4 stars 5 stars
comments

My Song Tab

song :my song 
artist :jerry cantrel
tuning normal
tabbed by joey wright

well i was just messing around and i figured out the intro so here you go :)


|---------------------------------|
|---------------------------------|
|---------------------------------|
|---------------------7777--------|
|----9h11---11--11----7777--------|
|----9-------9---9----5555--------|
[ Tab from: http://www.guitartabs.cc/tabs/j/jerry_cantrell/my_song_tab_ver_2.html ]
|----------------------------------|
|----------------------------------|
|----------------------------------|
|----------------------7777--------|
|----9h11---11--11-----7777--------|
|----9-------9---9-----5555--------|

|----------------------------------|
|----------------------------------|
|----------------------------------|
|----------------------7777--------|
|----9h11---11--11-----7777--------|
|----9-------9---9-----5555--------|

|----------------------------------|
|----------------------------------|
|----------------------------------|
|----------------------7777----999-|
|----9h11---11--11-----7777----999-|
|----9-------9----9----5555----777-|

simple as that!!! p.s if thers a song u want send me a private message and i'll tabb it the best i can.
Comments