Jerry Cantrell - My Song Chords & Tabs

 

My Song Chords & Tabs

Jerry Cantrell Chords & Tabs

Version: 1 Type: Tab 0 ratings
1 star 2 stars 3 stars 4 stars 5 stars
comments

My Song Tab

Author/Artist: Jerry Cantrell
Title: My Song

This song is really cool so I thought I'd try it. I had heard that it was played
a 1/2 step down, so I tuned my guitar and tried it. This is what I came up with. But,
this is ALL I came up with. Only the main part. I can't find the other parts. He is
definately a clever guitar player! :o)

*1/2 Step Down*
[ Tab from: http://www.guitartabs.cc/tabs/j/jerry_cantrell/my_song_tab.html ]
Intro/Verses:
Eb-------------------------------------------------------------------|
Bb-----3-------------------------------3-3---------------------------|
Gb-0-2-2-----------------------------0-2-2---------------------------|
Db-0---0-3-3-3-3-3-3-3-3-3-3-3-3-3---0-0-0-3-3-3-3-3-3-3-3-3-3-3-3-3-|
Ab-------1-1-1-1-1-1-1-1-1-1-1-1-1---------1-1-1-1-1-1-1-1-1-1-1-1-1-|
Eb-------------------------------------------------------------------|

Eb--------------------------------------------------------------|
Bb---3-3------------------------------3-3-----------------------|
Gb-0-2-2----------------------------0-2-2-----------------------|
Db-0-0-0-3-3-3-3-3-3-3-3-3-3-3-3-3--0-0-0-3-3-3-3-3-3-3-3-3-3-3-|
Ab-------1-1-1-1-1-1-1-1-1-1-1-1-1--------1-1-1-1-1-1-1-1-1-3-3-|
Eb--------------------------------------------------------------|

====
Comments