Jerry Cantrell - Keep The Light On Chords & Tabs

 

Keep The Light On Chords & Tabs

Jerry Cantrell Chords & Tabs

Version: 1 Type: Tab 0 ratings
1 star 2 stars 3 stars 4 stars 5 stars
comments

Keep The Light On Tab

Jerry Cantrell
Keep The Light On

Tuning: 
Dropped D + 1/2 step down

Intro/Verse: 
Eb:------------------------------------|
Bb:------------------------------------|
Gb:------------------------------------| Repeat
Db:---5^-0-0---0-5-0--5^-0-0---0-5-0---|
Ab:---5^-0-0---0-5-0--5^-0-0---0-5-0---|
Db:---5^-0-0---0-5-0--5^-0-0---0-5-0---|

Interlude: 
Eb:------------------------------------|
Bb:------------------------------------|
Gb:---5--------------------------------|
Db:---5----5----3--3----0---5^--0--0---|
Ab:---3----5----3--3----0---5^--0--0---|
Db:--------5----3--3----0---5^--0--0---|
   She says she ain't gonna...
[ Tab from: http://www.guitartabs.cc/tabs/j/jerry_cantrell/keep_the_light_on_tab.html ]
Chorus: 
Eb:-------------------------------|
Bb:-------------------------------|
Gb:-------------------------------| Repeat
Db:---3-----5-----3-----5-----3---|
Ab:---3-----5-----3-----5-----3---|
Db:---3-----5-----3-----5-----3---|
   He keeps the light on...

Outro: 
Eb:----------------------------------------------|
Bb:----------------------------------------------|
Gb:-------------7--5-----------------------------|
Db:---5^--0--3--7--5----5--3--5---5^--0--3-0-3---|
Ab:---5^--0--3--5--3----5--3--5---5^--0--3-0-3---|
Db:---5^--0--3----------5--3--5---5^--0--3-0-3---|

Eb:----------------------------------|
Bb:----------------------------------|
Gb:---------------------------7--5---| Repeat
Db:---5^--0--3-0-3--5^--0--3--7--5---|
Ab:---5^--0--3-0-3--5^--0--3--5--3---| Slide to finish
Db:---5^--0--3-0-3--5^--0--3---------| from the 5th fret


^ = bend
Comments