Jerry Cantrell - Cold Piece Chords & Tabs

 

Cold Piece Chords & Tabs

Jerry Cantrell Chords & Tabs

Version: 1 Type: Tab 0 ratings
1 star 2 stars 3 stars 4 stars 5 stars
comments

Cold Piece Tab

   
Jerry Cantrell
Cold Piece

Tuning:  normal

^ = palm mute
x = string mute

INTRO 

Gtr 1 - electric w/distortion

      A#5
e    -------------------------------------|
B    -------------------------------------|
G    -------------------------------------|
D    --8--(8)-----------------------8--8--|
A    --8--(8)-----------------------8--8--|
E    --6--(6)-----------------------6--6--|
				    ^  ^

e    -------------------------------------|
B    -------------------------------------|
G    -------------------------------------| rest for 2
D    --8--(8)-----------------------------| more bars
A    --8--(8)-----------------------------|
E    --6--(6)-----------------------------|

       F5   C5   D5         F5   C5   D5        A#5
e    --------------------|--------------------|----------------|
B    --------------------|--------------------|----------------|
G    -------5----7--(7)--|-------5----7--(7)--|----------------|
D    --3----5----7--(7)--|--3----5----7--(7)--|--8--(8)--------|
A    --3----3----5--(5)--|--3----3----5--(7)--|--8--(8)--------|
E    --1----3----5--(5)--|--1----3----5--(5)--|--6--(6)--------|

With Gtr 2

      A#5
e    ----------------|
B    ----------------|
G    ----------------|
D    --8--(8)--------|
A    --8--(8)--------|
E    --6--(6)--------|

Gtr 2 - electric with moderate distortion

     wah foot pedal as filter
[ Tab from: http://www.guitartabs.cc/tabs/j/jerry_cantrell/cold_piece_tab.html ]
e    --13--13--x-x-x-x--13--13--x-x-x-x-x-x--|
B    --13--13--x-x-x-x--13--13--x-x-x-x-x-x--| repeat this
G    --11--11--x-x-x-x--11--11--x-x-x-x-x-x--| 3 more times
D    ----------------------------------------|
A    ----------------------------------------|
E    ----------------------------------------|

1st VERSE - w/delay

e    ----------------------------|
B    --13b13r13b13r13b13r13------|
G    ----------------------------|
D    ----------------------------|
A    ----------------------------|
E    ----------------------------|
       Been awhile and you see his face...

CHORUS

       F5   C5   D5         F5  C5     D5
e    --------------------|---------------------|
B    --------------------|---------------------|
G    -------5----7--(7)--|-------------7--(7)--| repeat this
D    --3----5----7--(7)--|--3---5--5---7--(7)--| once more
A    --3----3----5--(5)--|--3---3--3---5--(5)--|
E    --1----3----5--(5)--|--1---3--3---5--(5)--|
			        ^  ^
       Give up, go away_ He's not yours to save
       And if you decide_ He's not that kind_ He got a

      A#5
e    -------------------------------------|
B    -------------------------------------|
G    -------------------------------------|
D    --8--(8)---------------------8--(8)--|
A    --8--(8)---------------------8--(8)--|
E    --6--(6)---------------------6--(6)--|
       cold piece inside

     wah foot pedal as filter

e    --13--13--x-x-x-x--13--13--x-x-x-x-x-x--|
B    --13--13--x-x-x-x--13--13--x-x-x-x-x-x--| repeat this
G    --11--11--x-x-x-x--11--11--x-x-x-x-x-x--| 3 more times
D    ----------------------------------------|
A    ----------------------------------------|
E    ----------------------------------------|
       cold piece inside





Comments