Jerry Cantrell - Anger Rising Chords & Tabs

 

Anger Rising Chords & Tabs

Jerry Cantrell Chords & Tabs

Version: 1 Type: Tab 0 ratings
1 star 2 stars 3 stars 4 stars 5 stars
comments

Anger Rising Tab

Title: Anger Rising
Artist:  Jerry Cantrell
CD:Degredation Trip

Tuning (down 1/2 step)

Intro (played throughout the song)

This is the "aaahhhh" part

--0--0--x--x--x--x--0
--0--0--x--x--x--x--0
--4--0--x--x--x--x--1
--4--2--3--10-5--4--2
--2--2--3--10-5--4--2
--x--0--1--8--3--2--0



Verse

--x---x--x--x--x--x--x---
--x---x--x--x--x--x--x---
--0h4-4--7--x--x--x--0h7-
--0h4-4--7--4--3--2--0h7-
--0h2-2--5--4--3--2--0h5-
--x---x--x--2--1--0--x---


Chorus

[ Tab from: http://www.guitartabs.cc/tabs/j/jerry_cantrell/anger_rising_tab.html ]
--x--x--x--x--x--x--x
--x--x--x--x--x--x--x
--x--x--x--x--x--x--x
--7--9--2--3--4--7--9
--7--9--2--3--4--7--9
--5--7--0--1--2--5--7



play these in this order


Intro x2
Verse x8
Chorus x4
verse x4
verse x8
Chorus x8
Intro x1
verse x4------played under the solo, which I don't have
chorus x4------
verse x4
chorus x4
chorus x4
Intro x4
Intro (just vocals)

I don't have lyrics and I had to use mainly power chords, but if you can get anything out 
of this have fun. This is only my second attempt at a tab and I think the song kicks ass!
Comments