Jerks - This Is Hell Chords & Tabs

 

This Is Hell Chords & Tabs

Jerks Chords & Tabs

Version: 1 Type: Bass Tab 0 ratings
1 star 2 stars 3 stars 4 stars 5 stars
comments

This Is Hell Bass Tab

The Jerks - This Is Hell
Tabbed By - Zac Mckenna

Intro/Outro
G---------------------------------------|
D---------------------------------------|
A-0-0--0----7-7--7--------------5----5--|
E---------------------7-7--7------------|
[ Tab from: http://www.guitartabs.cc/tabs/j/jerks/this_is_hell_btab.html ]
Verse/Chorus
G---------------------------------------|
D---------------------------------------|
A-0-0--0----7-7--7--------------5---5---|
E---------------------7-7--7------7---7-|

Pre Chorus
G---------------------------------------|
D---------------------------------------|
A--------7---7--------------9-----------|
E-9-9--9---9---9----7-7--7-10---10-7----|

G---------------------------------------|
D---------------------------------------|
A--------7---7------7--7--7-7-7-7-------|
E-9-9--9---9---9------------------------|
Comments