Jerks - Punch Up On Smith Street Chords & Tabs

 

Punch Up On Smith Street Chords & Tabs

Jerks Chords & Tabs

Version: 1 Type: Tab 0 ratings
1 star 2 stars 3 stars 4 stars 5 stars
comments

Punch Up On Smith Street Tab

The Jerks - Punch Up On Smith Street
Tabbed By - Zac Mckenna

Intro
E-----------------------------------------|
B-----------------------------------------|
G----6--8-------6--88888------------------|
D-6--6--8----6--6--88888------------------|
A-6--4--6----6--4--66666------------------|
E-4----------4----------------------------|

Verse
E-444-4-4--444-4-4------666-6-6--444-4-4--|
B-444-4-4--666-6-6------888-8-8--666-6-6--|
G-555-5-5--666-6-6------888-8-8--666-6-6--|
D-666-6-6-----------X3--------------------|
A-----------------------------------------|
E-----------------------------------------|

E-444-4-4--444-4-4------666-6-6--4--------|
B-444-4-4--444-4-4------888-8-8--6--------|
G-555-5-5--666-6-6------888-8-8--6--------|
D-666-6-6-----------X3--------------------|
A-----------------------------------------|
E-----------------------------------------|
[ Tab from: http://www.guitartabs.cc/tabs/j/jerks/punch_up_on_smith_street_tab.html ]
Chorus
E-444-4-4-4-4-4-4-4--444-4-4-4--666-6-6-6-|
B-666-6-6-6-6-6-6-6--444-4-4-4--888-8-8-8-|
G-666-6-6-6-6-6-6-6--555-5-5-5--888-8-8-8-|
D--------------------666-6-6-6------------|
A-----------------------------------------|
E-----------------------------------------|
	       Second Guitar
E-4------------------4----------6---------|
B-6------------------4----------8---------|
G-6------------------5----------8---------|
D-6--Ring------------6--Ring----8--Ring---|
A-4------------------6----------6---------|
E--------------------4--------------------|

Bridge
E-----------------------------------------|
B------6----------------------------------|
G------6------------8-8-8888--------------|
D-6----6--X7--------8-8-8888--------------|
A-6----4------------6-6-6666--------------|
E-4---------------------------------------|

Outro
E-----------------------------------------|
B-----------------------------------------|
G----6--8-------6--88888------------------|
D-6--6--8----6--6--88888------------------|
A-6--4--6----6--4--66666------------------|
E-4----------4----------------------------|
Comments