Jerks - Black Market Radio Chords & Tabs

 

Black Market Radio Chords & Tabs

Jerks Chords & Tabs

Version: 1 Type: Tab 0 ratings
1 star 2 stars 3 stars 4 stars 5 stars
comments

Black Market Radio Tab

The Jerks - Black Market Radio
Tabbed By - Zac Mckenna

INTRO - VERSE
E----------------First-Guitar---------------|
B-------------------------------------------|
G-8-888888-8-888888-8-888888-8-888888-------|
D--------------------------------------X6---|
A-6-666666-6-666666-6-666666-6-666666-------|
E-------------------------------------------|

E----------------Second-Guitar--------------|
B-------------------------------------------|
G-8-----6-----------------------------------|
D-8--8--6--6----X6--------------------------|
A-6--8--4--6--------------------------------|
E----6-----4--------------------------------|

PRE CHORUS
E-------------------------------------------|
B-------------------------------------------|
G-----------6-666666------------6-666666----|
D-8-888888--6-666666--8-888888--6-666666----|
A-8-888888--4-444444--8-888888--4-444444----|
E-6-666666------------6-666666--------------|
[ Tab from: http://www.guitartabs.cc/tabs/j/jerks/black_market_radio_tab.html ]
E-------------------------------------------|
B-------------------------------------------|
G-----------6-666666--8-88888888888888------|
D-8-888888--6-666666--8-88888888888888--X2--|
A-8-888888--4-444444--6-66666666666666------|
E-6-666666----------------------------------|

CHORUS
E-------------------------------------------|
B-------------------------------------------|
G-8888------6666----------------------------|
D-8888-8888-6666-6666----X4-----------------|
A-6666-8888-4444-6666-----------------------|
E------6666------4444-----------------------|

SOLO
E-------------------------------------------|
B-------------------------------------------|
G-------------------------------------------|
D-------------------------------------------|
A-6-8-6-5-6--10-8-6--10-8-6-----------------|
E-------------------------------------------|

E-------------------------------------------|
B-------------------------------------------|
G-8-10-8-7-8--12-10-8--12-10-8--------------|
D-------------------------------------------|
A-------------------------------------------|
E-------------------------------------------|
Comments