Jerks - 2003 Chords & Tabs

 

2003 Chords & Tabs

Jerks Chords & Tabs

Version: 1 Type: Tab 0 ratings
1 star 2 stars 3 stars 4 stars 5 stars
comments

2003 Tab

The Jerks - 2003
Tabbed By - Zac Mckenna

Intro/Verse
E--------------------------------------------------|
B--------------------------------------------------|
G------999--1111--7777-------999--77-7777-77-7777--|
D-777--999--1111--7777--777--999--77-7777-77-7777--|
A-777--777--9-9---5555--777--777--55-5555-55-5555--|
E-555-------------------555------------------------|
[ Tab from: http://www.guitartabs.cc/tabs/j/jerks/2003_tab.html ]
Chorus
E--------------------------------------------------|
B--------------------------------------------------|
G-----------11111111--7777--------9999--7777-------|
D-77777777--11111111--7777--7777--9999--7777--7777-|
A-77777777--9-9-9-9---5555--7777--7777--5555--7777-|
E-55555555------------------5555--------------5555-|

Bridge
E-0----0---------8-5-------------------------------|
B-5----5----5--------8-5---------5-----------------|
G-----------7B-----------7-5---5-7B----------------|
D----------------------------7---------------------|
A--------------------------------------------------|
E--------------------------------------------------|
Comments