Jeremy Camp - I Still Believe Chords & Tabs

 

I Still Believe Chords & Tabs

Jeremy Camp Chords & Tabs

Version: 1 Type: Tab 0 ratings
1 star 2 stars 3 stars 4 stars 5 stars
comments

I Still Believe Tab

CAPO 1ST FRET!!!

h    - hammer on
~    - let ring out


GUITAR 1'S PARTS:
-----------------
Intro:  (2x)                         Play after 2nd time:
e|----------------------------------|----------------------------------------|
B|----3-------3---------3-------3---|-----3-------3--------------------------|
G|--2---2---2---2-----2---2---2---2-|---2---2---2---2------------------------|
D|0---------------------------------|----------------------------------------|
A|--------4-------------------------|----------------------------------------|
E|----------------0h2-------3-------|-3-------3------------------------------|

Verse:  "Scattered words..."  (4x)
e|--------------------------------------|
B|----3-------3---------3-------3-------|
G|--2---2---2---2-----2---2---2---2-----|
D|0-------------------------------------|
A|--------4-----------------------------|
E|----------------0h2-------3-----------|

Pre Chorus:
e|---------------------0-----------------------------------------------------|
B|----------3----------0------------3----------------------------3-----------|
G|----------4----------2------------2----------------------------4-----------|
D|----------4----------2------------0----------------------------4-----------|
A|----------2----------0------------x----------------------------2-----------|
E|----------------------------------3----------------------------------------|
  

Pre Chorus Cont'd:
e|0---------------------|
B|0--------------3------|
G|2--------------2------|
D|2--------------0------|
A|0--------------x------|
E|---------------3------|
  

Chorus:
e|0-------------------0------------------------0------------------0----------|
B|3-------------------3-----------3------------3------------------3----------|
G|2-------------------2-----------2------------2------------------2----------|
D|0-------------------x-----------0------------0------------------x----------|
A|--------------------4-----------x-------------------------------4----------|
E|--------------------------------3------------------------------------------|
      

Chorus Cont'd:
e|-----------0------------------0----------------------0---------0-----------|
B|---3-------3------------------3-----------3----------3---------0---------3-|
G|---2-------2------------------2-----------2----------2---------2---------2-|
D|---0-------0------------------x-----------0----------0---------2---------0-|
A|---x--------------------------4-----------x--------------------0---------x-|
E|---3--------------------------------------3------------------------------3-|


Chorus Cont'd:
e|--------------|
B|--------------|
G|--------------|
D|--------------|
A|--------------|
E|--------------|
  I still believe.

Repeat Intro:  (2x)

Repeat Verse

Repeat Pre Chorus

Repeat Chorus

Break:
e|----------------------------------|
B|----------------------------------|
G|-----4-----2-2-------2-2-2-2-2-2--|
D|-----------------5-5-2-2-2-2-2-2--|
A|-0h2---2-0-----------0-0-0-0-0-0--|
E|---------------3------------------|
[ Tab from: http://www.guitartabs.cc/tabs/j/jeremy_camp/i_still_believe_tab.html ]
Bridge:
e|---------------------------------------------------------------------------|
B|---------------------------------------------------------------------------|
G|---------4----------2----------------------2------------4------------2-----|
D|---------4----------2-----------5----------2------------4------------2-----|
A|---------2----------0-----------5----------0------------2------------0-----|
E|--------------------------------3------------------------------------------|
  

Bridge Cont'd:
e|---------------------------------------------------------------------------|
B|---------------------------------------------------------------------------|
G|---------------2------------4----------2---------------------------2-------|
D|---------5-----2------------4----------2--------------5------------2-------|
A|---------5-----0------------2----------0--------------5------------0-------|
E|---------3--------------------------------------------3--------------------|
  

Bridge Cont'd:
e|---------------------------------------------------------------------------|
B|----3---------------3------------------------------------------------------|
G|----2---------------2------------2-----------------------------------------|
D|----0---------------0------------2-----------------------------------------|
A|----x---------------x------------0-----------------------------------------|
E|----3---------------2------------------------------------------------------|


Repeat Chorus:  (No guitar)

Repeat Chorus until end

End On:
e|---5~---|
B|---3~---|
G|---2~---|
D|---0~---|
A|--------|
E|--------|

GUITAR 2'S PARTS:
-----------------
Intro:  (Same as guitar 1)

Verse:  (Same as guitar 1)

Pre Chorus:  (2x)
e|--------6------------6---------6-------------------------------------------|
B|-----6~---6-------6~---6---6h8---6~----6~--6-6-----------------------------|
G|-6h7--------7-6h7--------7-------------------------------------------------|
D|---------------------------------------------------------------------------|
A|---------------------------------------------------------------------------|
E|---------------------------------------------------------------------------|

Chorus:
e|5-------------------5-----------5------------5------------------5----------|
B|5-------------------5-----------5------------5------------------5----------|
G|7-------------------6-----------7------------7------------------6----------|
D|7-------------------7-----------5------------7------------------7----------|
A|---------------------------------------------------------------------------|
E|---------------------------------------------------------------------------|
   

Chorus Cont'd:
e|---5-------5------------------5-----------5----------0---------0-----------|
B|---5-------5------------------5-----------5----------3---------0---------3-|
G|---7-------7------------------6-----------7----------2---------2---------2-|
D|---5-------7------------------7-----------5----------0---------2---------0-|
A|---------------------------------------------------------------0---------x-|
E|-------------------------------------------------------------------------3-|
 

Chorus Cont'd:
e|--------------|
B|--------------|
G|--------------|
D|--------------|
A|--------------|
E|--------------|
  I still believe.

Repeat Intro:  (2x)

Repeat Verse

Repeat Pre Chorus

Repeat Chorus

Break:  (Same as guitar 1)

Bridge:  (Same as guitar 1)

Repeat Chorus:  (No guitar)

Repeat Chorus until end

Ending:
e|---------------------------------------------------------------------------|
B|-----5~-------5~-------5~-------5~-------5~---7~-------5~------------------|
G|-7-7------7--------7--------7--------7-------------7~----------------------|
D|------------7--------7--------7--------7-----------------------------------|
A|---------------------------------------------------------------------------|
E|---------------------------------------------------------------------------|
Comments