Jeremiah Freed - How They All Got Here Chords & Tabs

 

How They All Got Here Chords & Tabs

Jeremiah Freed Chords & Tabs

Version: 1 Type: Tab 0 ratings
1 star 2 stars 3 stars 4 stars 5 stars
comments

How They All Got Here Tab

   
-------------------------------------------------------------------------------
			     How They All Got Here - Jeremiah Freed
-------------------------------------------------------------------------------
Tabbed by: SKooL-z
Email: skool_z@hotmail.com

Tuning: Half-Step Down 

Listen to the song to get the rythym



Intro
e|---------------------------------------------------------------------------|
B|-15------------------------------------------------------------------------|
G|-14------------------------------------------------------------------------|
D|-12------------------------------------------------------------------------|
A|---------------------------------------------------------------------------|
E|---------------------------------------------------------------------------|

e|---------------------------------------------------------------------------|
B|---------------------------------------------------------------------------|
G|-4-------------------22----------------------------------------------------|
D|-4-----4--5-----4p0--22-2/4------------------------------------------------|
A|-2-2/5----5-2/5------00-----2------0---------------------------------------|
E|----------3--------------------0h2---2p0-----------------------------------|


Verse
e|------0-------0----------------------0-------0-----------------------------|
B|-2/3--5--2/3--5-----------------2/3--5--2/3--5-----------------------------|
G|-4-4--4--4-4--4-----------------4-4--4--4-4--4-----------------------------|
D|-4-4-----4-4--------------------4-4-----4-4--------------------------------|
A|---------------------0------------------------------0----------------------|
E|-----------------0h2---2p0----------------------0h2---2p0------------------|
[ Tab from: http://www.guitartabs.cc/tabs/j/jeremiah_freed/how_they_all_got_here_tab.html ]
e|---------------------------------------------------------------------------|
B|---------------------------------------------------------------------------|
G|-7777-----7777-6-----------------------------------------------------------|
D|-7777--7--7777-6-----------------------------------------------------------|
A|-5555--7--5555-4------0----------------------------------------------------|
E|-------5----------0h2---2p0------------------------------------------------|


Chorus
e|---------------------------------------------------------------------------|
B|---------------------------------------------------------------------------|
G|---------------------------------------------------------------------------|
D|-5555--77--999999999999---------5555--77--999999999999---------------------|
A|-5555--77--999999999999---------5555--77--999999999999---------------------|
E|-3333--55--777777777777---------3333--55--777777777777---------------------|

e|---------------------------------------------------------------------------|
B|---------------------------------------------------------------------------|
G|---------------------------------------------------------------------------|
D|-xxxx-5--xxx-7--xx-999999999999--------------------------------------------|
A|-xxxx-5--xxx-7--xx-999999999999--------------------------------------------|
E|-xxxx-3--xxx-5--xx-777777777777--------------------------------------------|


Bridge
e|---------------------------------------------------------------------------|
B|---------------------------------------------------------------------------|
G|-44444444--66666666--22222--4444444--44444444--66666666--22222-------77----|
D|-44444444--66666666--22222--4444444--44444444--66666666--22222--222--77----|
A|-22222222--44444444--00000--2222222--22222222--44444444--00000--222--55----|
E|----------------------------------------------------------------000--------|

e|---------------------------------------------------------------------------|
B|---------------------------------------------------------------------------|
G|-4--6--2------77----4--6--2------77----------------------------------------|
D|-4--6--2--22--77----4--6--2--22--77----------------------------------------|
A|-2--4--0--22--55----2--4--0--22--55----------------------------------------|
E|----------00-----------------00--------------------------------------------|


| /  slide 
| b  bend
| h  hammer-on
| p  pull-off
| ~  vibrato
| +  harmonic
| x  Mute note
===============================================================================
Comments