Jeremiah Freed - Again Chords & Tabs

 

Again Chords & Tabs

Jeremiah Freed Chords & Tabs

Version: 2 Type: Tab 0 ratings
1 star 2 stars 3 stars 4 stars 5 stars
comments

Again Tab

   
#----------------------------------PLEASE NOTE--------------------------------#
#This file is the author's own work and represents their interpretation of the#
#song. You may only use this file for private study, scholarship, or research.#
#-----------------------------------------------------------------------------#

Arist:	Jeremiah Freed
Song:	Again
TUNING: Eb, Ab, Db, Gb, Bb, Eb
Tabbed by:  Two crazy kids from Maine

Legend:
~	Vibrato
/	Slide
b	Bend
r	Release
pb	Prebend
PM	Palm Mute
h	Hammer
p	Pull-off
//	big slide
\	slide the other way

This is about 97% right, we've watched Nick a lot over the last year.
Just follow the tab top to bottom and it's the entire song.  Oh yeah,
remember to tune your guitar half a step down or this won't sound right...


Intro:
eb|---------------------------------------------------------------------|
Bb|-------5-----------------5--/12----------12--------------------------|
Gb|---------6-------------4----/13p11-13-11-----------------------------|
Db|-----6-----4h6-4---4-------------------------------------------------| x 2
Ab|---4-------------6---7-----------------------------------------------|
Eb|---------------------------------------------------------------------|

then play these chords:

C#m A E b x 2


Verse:
|----------------------------------------------------------------------|
|-------5-----------------5--/12----------12---------------------------|
|---------6-------------4----/13p11-13-11------------------------------|
|-----6-----4h6-4---4--------------------------------------------------| x 4
|---4-------------6---7------------------------------------------------|
|----------------------------------------------------------------------|


Bridge:

bridge chords: F# A F# A F# A b

|------------------------------------9--9--9--9------------------------|
|--12--------------------------------12b14b14b14r12--------------------|
|--11b13r11--9------9--11--9~~~----------------------------------------|
|---------------11-----------------------------------------------------|
|----------------------------------------------------------------------|
|----------------------------------------------------------------------|

|----------------------------------------------------------------------|
|--9--9--9--10--9-----9--------12--------------------------------------|
|-----------------11-----11b13----pb13r11--11-13-11--8b9r8~~-----------|
|----------------------------------------------------------------------|
|----------------------------------------------------------------------|
|----------------------------------------------------------------------|


Chorus:

C#m A E b

C#m A E b
      ^
      |

on the E chord play:

|----------------------------------------------------------------------|
|----------------------------------------------------------------------|
|----------------------------------------------------------------------|
|-------------6--------------------------------------------------------|
|---------------7--7\\-------------------------------------------------|
|--------//9-----------------------------------------------------------|

C#m A E b

C#m A E b
    ^
    |

on the A chord play:

|----------------------------------------------------------------------|
|----------------------------------------------------------------------|
|----------------------------------------------------------------------|
|-------------6--------------------------------------------------------|
|---------------7-----------7\\----------------------------------------|
|--------//9-----------------------------------------------------------|


Thingy After Chorus:

|----------------------------------------------------------------------|
|--------------4-4-4-5-5-5-5-5-/7-7--4-4h5-5-5-5-5-/9-9----------------|
|----------------------------------------------------------------------|
|----------------------------------------------------------------------|
|----------------------------------------------------------------------|
|----------------------------------------------------------------------|

|----------------------------------------------------------------------|
|--------------4-4h5-5-5-5-5-/7-7--4-4h5-5-5-5-5-/9-9-4-5--------------|
|----------------------------------------------------------------------|
|----------------------------------------------------------------------|
|----------------------------------------------------------------------|
|----------------------------------------------------------------------|


Verse:
|----------------------------------------------------------------------|
|-------5-----------------5--/12----------12---------------------------|
|---------6-------------4----/13p11-13-11------------------------------|
|-----6-----4h6-4---4--------------------------------------------------| x 4
|---4-------------6---7------------------------------------------------|
|----------------------------------------------------------------------|


Bridge:

rhythm: F# A F# A F# A b

|------------------------------------9--9--9--9------------------------|
|--12--------------------------------12b14b14b14r12--------------------|
|--11b13r11--9------9--11--9~~~----------------------------------------|
|---------------11-----------------------------------------------------|
|----------------------------------------------------------------------|
|----------------------------------------------------------------------|

|----------------------------------------------------------------------|
|--9--9--9--10--9-----9--------12--------------------------------------|
|-----------------11-----11b13----pb13r11--11-13-11--8b9r8-------------|
|----------------------------------------------------------------------|
|----------------------------------------------------------------------|
|----------------------------------------------------------------------|


Chorus:

C#m A E b

C#m A E b
      ^
      |

on the E chord play:
[ Tab from: http://www.guitartabs.cc/tabs/j/jeremiah_freed/again_tab_ver_2.html ]
|----------------------------------------------------------------------|
|----------------------------------------------------------------------|
|----------------------------------------------------------------------|
|-------------6--------------------------------------------------------|
|---------------7--7\\-------------------------------------------------|
|--------//9-----------------------------------------------------------|

C#m A E b

C#m A E b
    ^
    |

on the A chord play:

|----------------------------------------------------------------------|
|----------------------------------------------------------------------|
|----------------------------------------------------------------------|
|-------------6--------------------------------------------------------|
|---------------7-----------7\\----------------------------------------|
|--------//9-----------------------------------------------------------|


Solo:

rhythm: C#m A E b x 4

|---9------------------------------------------------------------------|
|--12b14---------------------------------------------------------------|
|-------------------9------11--9~~~/-----------------------------------|
|-------------9h11-----11----------------------------------------------|
|---------/11----------------------------------------------------------|
|----------------------------------------------------------------------|

                                                              PM PM PM
|---9------------------------------------------------------------------|
|--12b14---------------------------------------------------------------|
|-------------------9------11--9---------------------------------------|
|-------------9h11-----11---------/11-9-------9------------------------|
|---------/11---------------------------11-12---12-11-9----------------|
|-------------------------------------------------------12-11-9-9-9-9--|

|---9-------------------------------------------------9----9-----------|
|--12b14--------------------------------------------9---12---9-12b14~~-|
|-----------------9------11--9-11p9-11p9----9-11b13--------------------|
|-----------9h11-----11------------------11----------------------------|
|-------/11------------------------------------------------------------|
|----------------------------------------------------------------------|

|-9---12-12-9------9---12/14-12-14b16-14b16-14b16~r14------------------|
|---9---------9-12---9-------------------------------------------------|
|----------------------------------------------------------------------|
|----------------------------------------------------------------------|
|----------------------------------------------------------------------|
|----------------------------------------------------------------------|

rhythm: F# A F# A F# A b

|------19----19----19----19--------------------------------------------|
|---17----16----------16-----------------------------------------------|
|---------------18------------11b13r11-13-11---------------------------|
|----------------------------------------------------------------------|
|----------------------------------------------------------------------|
|----------------------------------------------------------------------|

|------19----19----19----19--19b21-19----------------------------------|
|---17----16----------16-----------------------------------------------|
|---------------18-----------------------------------------------------|
|----------------------------------------------------------------------|
|----------------------------------------------------------------------|
|----------------------------------------------------------------------|

|------19----19----19----19----------------------------------9-----9---|
|---17----16----------16------------------------9~~-10~~--12b14-12b14--|
|---------------18----------11b13r11-13-11--11~~-----------------------|
|----------------------------------------------------------------------|
|----------------------------------------------------------------------|
|----------------------------------------------------------------------|


Chorus:

C#m A E b

C#m A E b
      ^
      |

on the E chord play this:

|----------------------------------------------------------------------|
|----------------------------------------------------------------------|
|----------------------------------------------------------------------|
|-------------6--------------------------------------------------------|
|---------------7--7\\-------------------------------------------------|
|--------//9-----------------------------------------------------------|

C#m A E b

C#m A E b
    ^
    |

on the A chord play this:

|----------------------------------------------------------------------|
|----------------------------------------------------------------------|
|----------------------------------------------------------------------|
|-------------6--------------------------------------------------------|
|---------------7-----------7\\----------------------------------------|
|--------//9-----------------------------------------------------------|


Outro:

rhythm: C#m A E b

|----------------------------------------------------------------------|
|----------------------------------------------------------------------|
|---8/9--9--9--9--8--6-/11-9-/13-9--8/9--9\8---------------------------|
|----------------------------------------------------------------------| x 3
|---6/7--7--7--7--6--4-/9--7-/11-7--6/7--7\6---------------------------|
|----------------------------------------------------------------------|

last time through
                                              end on C#m
|----------------------------------------------------------------------|
|----------------------------------------------------------------------|
|---8/9--9--9--9--8--6-/11-9-/13-9--8/9--9\8-6~~-----------------------|
|----------------------------------------------------------------------|
|---6/7--7--7--7--6--4-/9--7-/11-7--6/7--7\6-4~~-----------------------|
|----------------------------------------------------------------------|
Comments