Jeopardy - Jeopardy Theme Chords & Tabs

 

Jeopardy Theme Chords & Tabs

Jeopardy Chords & Tabs

Version: 1 Type: Tab 0 ratings
1 star 2 stars 3 stars 4 stars 5 stars
comments

Jeopardy Theme Tab

-------------------------------------------------------------------------------
			     Jeopardy Theme
-------------------------------------------------------------------------------
Tabbed by: A Alvarez
Email: Tigreen5t5@yahoo.com
Tuning: standard

this is about 90% correct
only thing i couldnt figure out is where its exactly played
it could be on a higher or lower octave. But i know im pretty close.
Any way if you play it like this it should sound good.

I actually figured this out in 5 seconds while i was playing guitar and heard this part 
i knew it was easy.
[ Tab from: http://www.guitartabs.cc/tabs/j/jeopardy/jeopardy_theme_tab.html ]
e|---------------------------------------------------------------------------|
B|---------------------------------------------------------------------------|
G|---------------------------------------------------------------------------|
D|9-11-9-----9-11-9--9-11-9-11-13-12-11-10-9-8--7-9-7-----7-9-7--------------|
A|-------9-9------------------------------------------7-7--------------------|
E|---------------------------------------------------------------------------|

e|----------------------------------------------------------------------------|
B|----------------------------------------------------------------------------|
G|----------------------------------------------------------------------------|
D|7-9-7-5-4-3-1---10-12-10-------10-12-10--10-12-10-12-14-13-12-11-10-9-------|
A|-------------------------10-10----------------------------------------------|
E|----------------------------------------------------------------------------|

e|---------------------------------------------------------------------------|
B|---------------------------------------------------------------------------|
G|---------------------------------------------------------------------------|
D|8-10-8-----8-10-8--8-10-8-6-5-4-2------------------------------------------|
A|-------8-8-----------------------------------------------------------------|
E|---------------------------------------------------------------------------|
Comments