Jeopardy - Jeopardy Theme Song Chords & Tabs

 

Jeopardy Theme Song Chords & Tabs

Jeopardy Chords & Tabs

Version: 1 Type: Tab 0 ratings
1 star 2 stars 3 stars 4 stars 5 stars
comments

Jeopardy Theme Song Tab

   
-------------------------------------------------------------------------------
			     Jeopardy Theme Song 
-------------------------------------------------------------------------------
Tabbed by: Ryan S
Email:Rssskater@aol.com

Tuning: Standard (e a d g b e)
[ Tab from: http://www.guitartabs.cc/tabs/j/jeopardy/jeopardy_theme_song_tab.html ]
e|-----------------------------------------11--9-----------------------------|
B|-------12-----------12----------12--------------12--11---9-8---------------|
G|----11----11-----11-----11---11----11--------------------------------------|
D|-------------9------------------------9------------------------------------|
A|---------------------------------------------------------------------------|
E|---------------------------------------------------------------------------|

| /  slide up
| \  slide down
| h  hammer-on
| p  pull-off
| ~  vibrato
| +  harmonic
| x  Mute note
=======================================================================
Comments