Jenova - First Track Chords & Tabs

 

First Track Chords & Tabs

Jenova Chords & Tabs

Version: 1 Type: Tab 0 ratings
1 star 2 stars 3 stars 4 stars 5 stars
comments

First Track Tab

   

 This is a song from my own band. So most people on this site 
 won't have a clue how it goes.
 
 But here it is.

 Drop D tuning (D,A,D,G,B,E)

 Intro over the bass
 |------------
 |------------
 |------------
 |------------
 |-5---3------
 |-5---3------
 
 When the bass hits the 17th fret, let the first chord ring, then 
 when the bass ends on the 3rd fret, quickly strike the second chord
 and stop it with your fretting hand.

 Second riff/Chorus
 |---------------------------------
 |---------------------------------
 |---------------------------------
 |---------------------------------
 |-0-0-0-0-0-0-0-0-0-3-3-3-5-5-5-5-
 |-0-0-0-0-0-0-0-0-0-3-3-3-5-5-5-5-
[ Tab from: http://www.guitartabs.cc/tabs/j/jenova/first_track_tab.html ]
 |---------------------------------
 |---------------------------------
 |---------------------------------
 |---------------------------------
 |---------------------------------
 |-0-0-0-0-0-0-0-0-0-6-6-6-3-3-3-3-

 Verse melody
 |---------------------0-----------
 |---1---1-0---0---3-----3---3-----
 |-2---2-----2---0---0-----0-------
 |---------------------------------
 |---------------------------------
 |---------------------------------

 Repeat the melody throughout the verse.
 
 Interlude 
 |--------------------------------------
 |--------------------------------------
 |--------------------------------------
 |--------------------------------------
 |--------------------------------------
 |-0-0-10-12-0-0-12-13-0-0-15-13-0-0-17-

 |--------------------------------------
 |--------------------------------------
 |--------------------------------------
 |--------------------------------------
 |--------------------------------------
 |-0-0-12-10-0-0-8-7-0-0-7-5-0-0-3------

 Just following the bass intro.

 Well thats all of it so see if you can make something of it, whether
 you have heard the song or not.
Comments