Jenoah - Wish For Alliance Chords & Tabs

 

Wish For Alliance Chords & Tabs

Jenoah Chords & Tabs

Version: 2 Type: Tab 0 ratings
1 star 2 stars 3 stars 4 stars 5 stars
comments

Wish For Alliance Tab

   
-------------------------------------------------------------------------------
			     Wish for Alliance - Jenoah
-------------------------------------------------------------------------------
Tabbed by: Citizen "Wessinator" 44


Tuning: Standard Tuning

| /  slide up
| \  slide down
| h  hammer-on
| p  pull-off
| ~  vibrato
| +  harmonic
| x  Mute note

This is the first song on the "morning is when Jenoah wakes up" EP. This is
at least 90% correct. Everyonce in a while, there will be a guitar doing some
single notes in the background, but if you play the song as shown below it
should come out nearly perfect. ROCK ON

  INTRO
e|-0-------0-------0------0--------------------------------------------------|
B|---0-------0-------0------0------------------------------------------------|
G|-----3-------3-------3------3----------------------------------------------|
D|-------4-------4-------4------4/6------------------------------------------|
A|---------------------------------------------------------------------------|
E|---------------------------------------------------------------------------|

  Riff 1
e|---------------------------------------------------------------------------|
B|---------------------------------------------------------------------------|
G|-8-8---8-8-8---8-8-8---8-8-8---16-16-16---16-16-16---16-16-16---16-16-16---|
D|-8-8---8-8-8---8-8-8---8-8-8---16-16-16---16-16-16---16-16-16---16-16-16---|
A|-6-6---6-6-6---6-6-6---6-6-6---14-14-14---14-14-14---14-14-14---14-14-14---|
E|---------------------------------------------------------------------------|

e|-----------------------------------------------------------------------------|
B|-----------------------------------------------------------------------------|
G|-8-8-8---8-8-8---8-8-8---11-11-11---16-16-16---16-16-16---16-16-16---16-16-16|
D|-8-8-8---8-8-8---8-8-8---11-11-11---16-16-16---16-16-16---16-16-16---16-16-16|
A|-6-6-6---6-6-6---6-6-6---9--9--9----14-14-14---14-14-14---14-14-14---14-14-14|
E|-----------------------------------------------------------------------------|
[ Tab from: http://www.guitartabs.cc/tabs/j/jenoah/wish_for_alliance_tab_ver_2.html ]
  Riff 2
e|---------------------------------------------------------------------------|
B|---------------------------------------------------------------------------|
G|---------------------------------------------------------------------------|
D|-2--2---2--222--xx-7--7---7--777--xx---------------------------------------|
A|-2--2---2--222--xx-7--7---7--777--xx---------------------------------------|
E|-0--0---0--000--xx-5--5---5--555--xx---------------------------------------|

  Riff 3
e|---------------------------------------------------------------------------|
B|---------------------------------------------------------------------------|
G|---------------------------------------------------------------------------|
D|--14141414141414141414141414141414-----------------------------------------|
A|--14141414141414141414141414141414-----------------------------------------|
E|--12121212121212121212121212121212-----------------------------------------|

  Riff 4
e|---------------------------------------------------------------------------|
B|---------------------------------------------------------------------------|
G|---------------------------------------------------------------------------|
D|----66-666/7-77------------------------------------------------------------|
A|----66-666/7-77------------------------------------------------------------|
E|----44-444/5-55------------------------------------------------------------|

  Riff 5
e|---------------------------------------------------------------------------|
B|---------------------------------------------------------------------------|
G|---9999-9999-9999-9999-8888-8888-8888-8888---------------------------------|
D|---9999-9999-9999-9999-8888-8888-8888-8888---------------------------------|
A|---7777-7777-7777-7777-6666-6666-6666-6666---------------------------------|
E|---------------------------------------------------------------------------|

The progression of the song is as follows...
INTRO
RIFF 1- 2x
RIFF 2- 2x
(Ambiant Guitar Tremelos)
RIFF 1- 2x
RIFF 2- 4x
RIFF 3- 1x
RIFF 4- 4x
RIFF 5- 3x
RIFF 2- 4x
RIFF 5- 4x



===============================================================================
Comments