Jennifer Rostock - Kind Von Dir Chords & Tabs

 

Kind Von Dir Chords & Tabs

Jennifer Rostock Chords & Tabs

Version: 1 Type: Bass Tab

Kind Von Dir Bass Tab

*************************
Kind von Dir
*************************

tabbed by -zero83-
PLEASE RATE AND COMMENT! =)

TUNING: EADG

0:00
 --------------------------------------------------2x-|
 -----------------------------------------------------|
 -----------------888888881010101010101010------------|
 -1010101010101010------------------------1010108-888-|

 -----------------------------------------------------|
 -----------------------------------------------------|
 -----------------88---88---1010---1010--8---8-10-----|
 -101010--1010--------------------------------------8-|

 -----------------------------------------------------|
 -----------------------------------------------------|
 -----------------88---88---1010---1010--8---8-10-----|
 -1010----1010--------------------------------------8-|

 -----------------------------------------------------|
 -----------------------------------------------------|
 -----------------888888881010101010101010------------|
 -1010101010101010------------------------1010108-888-|

0:35
 -----------------------------------------|
 -----------------------------------------|
 -----------------------------------------|
 -6666666655555555-10--10---8-8--6-666666-|

 -----------------------------------------|
 -----------------------------------------|
 -----------------------------------------|
 -555555556666666655555555-10-10-10-10-10-|

0:50
 -------------------------------------------2x-|
 ----------------------------------------------|
 ----------------------------------------------|
 -6666666688888888-10---10~------10---10~------|

 ----------------------------------------------|
 ----------------------------------------------|
 --------------------10------------10----------|
 -6666666688888888-10--1110~-----10--1110~-----|

 ----------------------------------------------|
 ----------------------------------------------|
 ----------------------------------------------|
 -6666666688888888-10---10~------10---10~------|


1:18
 -----------------------------------------------------|
 -----------------------------------------------------|
 -----------------88---88---1010---1010--8---8-10-----|
 -1010----1010--------------------------------------8-|

 -----------------------------------------------------|
 -----------------------------------------------------|
 -----------------88---88---1010---1010---------------|
 -1010----1010----------------------------101010-8----|
[ Tab from: http://www.guitartabs.cc/tabs/j/jennifer_rostock/kind_von_dir_btab.html ]
1:31
 -----------------------------------------|
 -----------------------------------------|
 -----------------------------------------|
 -6666666655555555-10--10---8-8--6-666666-|

 -----------------------------------------|
 -----------------------------------------|
 -----------------------------------------|
 -555555556666666655555555--------10------|

1:49
 -------------------------------------------2x-|
 ----------------------------------------------|
 ----------------------------------------------|
 -6666666688888888-10---10~------10---10~------|

 ----------------------------------------------|
 ----------------------------------------------|
 --------------------10------------10----------|
 -6666666688888888-10--1110~-----10--1110~-----|

 ----------------------------------------------|
 ----------------------------------------------|
 ----------------------------------------------|
 -6666666688888888-10---10~------10---10~------|


 ----------------------------------------------|
 ----------------------------------------------|
 ----------------------------------------------|
 -6666666688888888-10---10~------10------------|

2:24
 -----------------------------------------------------|
 -----------------------------------------------------|
 -----------------------------------------------------|
 -6~-----------8~-----------6~-----------8~-----------|

 -----------------------------------------------------|
 -----------------------------------------------------|
 -----------------------------------------------------|
 -6~-----------8~-----------6~-----------5------------|


2:38
 -------------------------------------------2x-|
 ----------------------------------------------|
 ----------------------------------------------|
 -6666666688888888-10---10~------10---10~------|

 ----------------------------------------------|
 ----------------------------------------------|
 --------------------10------------10----------|
 -6666666688888888-10--1110~-----10--1110~-----|

 ----------------------------------------------|
 ----------------------------------------------|
 -6666666688888888-10---10~------10---10~------|

 ----------------------------------------------|
 ----------------------------------------------|
 --------------------10------------10----------|
 -6-6-6-6-8-8-8-8--10--1110~-----10--1110~-----|

 ----------------------------------------------|
 ----------------------------------------------|
 -6-6-6-6-8-8-8-8--10--------------------------|