Jennifer Love Hewitt - Barenaked Chords & Tabs

 

Barenaked Chords & Tabs

Jennifer Love Hewitt Chords & Tabs

Version: 1 Type: Tab 0 ratings
1 star 2 stars 3 stars 4 stars 5 stars
comments

Barenaked Tab

   
BARENAKED    By Jennifer Love Hewitt

Tab by PattySaint

Intro: (repeat this pattern for all the verses)
    G          D           Am           C
E-----3--3-3---2-2-2-0--------0--0-0------0--0-0------|
B-----3--3-3---3-------3------1--1-1------1--1-1------|
G-----0--0-0---2-----------2--2--2-2------0--0-0------|
D--------------0-----------0------------2-------------|
A---------------------------------------3-------------|
D--3--------------------------------------------------|

    G          D           Am            C
E-----3--3-3---2-2-2-0--------0--0-0---- 0----------|
B-----3--3-3---3-------3------1--1-1-----1----------|
G-----0--0-0---2-----------2--2--2-2-----0----------|
D--------------0-----------0-------------2----------|
A----------------------------------------3-3-2-0--3-|
D--3------------------------------------------------|

verse 1:
(G  D  Am  C --> using pattern of intro)
Didja ever have that dream
Where you're walking naked down the street
And everyone just stares

Didja ever feel so deep
That you speak your mind
To just put others straight to sleep
You wonder if anybody cares

Bm
Sometimes I think
      Am
I'm the only one
Bm
Whose day turned out
  C            D
Unlike it had begun

[ Tab from: http://www.guitartabs.cc/tabs/j/jennifer_love_hewitt/barenaked_tab.html ]
CHORUS: (power chords)
	  G     D
And I feel barenaked
      Am         C
And I just cant take it
     G             D             Am         C
I'm getting jaded, no i just cant fake it anymore
       G     D                  Am         C
cuz im barenaked and i know lifes what you make it
            G       D           Am      C
wish i could float away to some other day


verse 2:
(G  D  Am  C --> using pattern of intro)
Ever go downstairs to start your day
But your cars not there
Yeah you know the jokes on you
Ever try your luck with a pickup line, but you just suck
You tell yourself it wasn't you

        Bm                   Am
And i know it's hard to hold it inside
      Bm              C         D
It's days like these i run and hide


CHORUS...

(G  D  Am  C)
It's all a state of mind
But i dont mind trying to find a way
To keep my head above the mess i make
What the world creates
Sometimes it feels so good to let it all fall
As it would fall
And then you fall, the only fall
And then the world comes tumbling down down down down down

CHORUS...

When I feel barenaked...    ends on G

LIKED IT? SO, THANK ME NOW! Or... just talk to me!  =)
MSN: pattyparrela@hotmail.com
Comments