Jennifer Lopez - Waiting For Tonight Chords & Tabs

 

Waiting For Tonight Chords & Tabs

Jennifer Lopez Chords & Tabs

Version: 1 Type: Bass Tab 0 ratings
1 star 2 stars 3 stars 4 stars 5 stars
comments

Waiting For Tonight Bass Tab

JENNIFER LOPEZ - "Waiting For Tonight" - Bass Tab

Common Time(4/4)
Standard Tuning(EADG)

INTRO/PRE-END:
       (x4)
|----------|--------------|-------------|-------------|
|*--------*|*-.-.-.-.-----|-------------|-------------|
|*-r-e-s-t*|*-1-1-1-1-r-1-|-.-.-.-.-----|-.-.-.-.-----|
|----------|--------------|-4-4-4-4-r-4-|-1-1-1-1-r-1-|
   1 2 3 4    1 2 3 & 4 &   1 2 3 & 4 &   1 2 3 & 4 &

           (x3)
|--------------|
|-------------*|
|-.-.-.-.-.-.-*|
|-2-2-2-2-4-4--|
  1 2 3 & 4 &  

[ Tab from: http://www.guitartabs.cc/tabs/j/jennifer_lopez/waiting_for_tonight_btab.html ]
VERSE/CHORUS/END:
|------------------|-----------------|-----------------|
|*-.-.-----.-.-----|-----------------|-----------------|
|*-1-1-r-1-1-1-r-1-|-.-.-----.-.-----|-.-.-----.-.-----|
|------------------|-4-4-r-4-4-4-r-4-|-1-1-r-1-1-1-r-1-|
   1 2 & a 3 & 4 &   1 2 & a 3 & 4 &   1 2 & a 3 & 4 &

|-----------------|-----------------|-----------------|
|-----------------|-.-.-----.-.-----|-----------------|
|-.-.-----.-.-----|-1-1-r-1-1-1-r-1-|-.-.-----.-.-----|
|-2-2-r-2-2-2-r-2-|-----------------|-4-4-r-4-4-4-r-4-|
  1 2 & a 3 & 4 &   1 2 & a 3 & 4 &   1 2 & a 3 & 4 &

|-----------------|------------------|
|-----------------|-----------4---6-*|
|-.-.-----.-.-----|-.-.-------------*|
|-1-1-r-1-1-1-r-1-|-2-2-r-2-2---4----|
  1 2 & a 3 & 4 &   1 2 & a 3 & 4 &

By: Johari Taylor
E-mail: viking@powerup.com.au
More Bass Tabs: http://www.powerup.com.au/~viking/basstab.htm
Comments