Jem - Maybe Im Amazed Chords & Tabs

 

Maybe Im Amazed Chords & Tabs

Jem Chords & Tabs

Version: 1 Type: Tab 0 ratings
1 star 2 stars 3 stars 4 stars 5 stars
comments

Maybe Im Amazed Tab

Tuning standard

[ Tab from: http://www.guitartabs.cc/tabs/j/jem/maybe_im_amazed_tab.html ]
E-----------1------------1------------1--------------1--------------1-------|
B---------------------------------------------------------------------------|
G----3---3----------2--2--------1-1----------1--1--------0---3--3-----------|
D-3--------------3----------3--------------3--------------------------------|
A---------------------------------------------------------------------------|
E---------------------------------------------------------------------------|

E---------------1-----------------------|
B---------------------------------------|
G-------3---3---------------------------|
D---4---------------3-------------------|
A---------------------------------------|
E---------------------------------------|

First tab, hope it's right
Comments