Jem - Flying High Chords & Tabs

 

Flying High Chords & Tabs

Jem Chords & Tabs

Version: 1 Type: Tab 1 rating
1 star 2 stars 3 stars 4 stars 5 stars
comments

Flying High Tab

   
This is just from ear but I think it's pretty accurate since the guitar chords are 
really not that complicated. It's fingerstlye throughout the song so if you can't 
figure out how it is fingerstyled, email me at quagland@sbcglobal.net. This is in
 standard tuning but if you want to make it sound better you can put a capo on the 
2nd fret but you would have to change your vocals to the key of D. Please rate my tab 
cuz this is my first one and I think after all the tabs I saw, I learned how to do it 
quite well. I think this is a greats song. Please forgive any mistakes I make for I am 
only a 16 year old human.

Intro:

   C                               Bb
    
e|-------0----------------0----------------1---------------------1------------------]
B|-1-------1-----1--1-------1-----1--3-------3------------3---------3-----3---------]
G|---0-------0--------0-------0--------3--------3----3------3---------3-------------]
D|-----2-------2--------2-------2--------3---------3-----------3--------3-----------]
A|-3-----3----------3-----3----------1-----1--------------1------1--------1---------]
E|----------------------------------------------------------------------------------]
   F                Fm
e|-------1----------------1---------------0-----------------------------------------]
B|-1-------1----------------1-----1-1-------1-----1--1------------------------------]
G|---2-------2---2--1---------1-------0-------0-------------------------------------]
D|-----3-------3------3---------3-------2-------2-----------------------------------]
A|----------------------3-----------3-----3----------3------------------------------]
E|-1-----1-------1--1-----1---------------------------------------------------------]

Verse:X2

    C                                 Bb
   You can't know....        how much I, think about you.
    
e|:-------0----------------0----------------1---------------------1----------------]
B|:-1-------1-----1--1-------1-----1--3-------3------------3---------3-----3-------]
G|:---0-------0--------0-------0--------3--------3----3------3---------3-----------]
D|:-----2-------2--------2-------2--------3---------3-----------3--------3---------]
A|:-3-----3----------3-----3----------1-----1--------------1------1--------1-------]
E|:--------------------------------------------------------------------------------]

   F                Fm              C
   No oh            It's makin' my head spin.
e|-------1----------------1---------------0----------------0----------------------:]
B|-1-------1----------------1-----1-1-------1-----1--1-------1-----1--------------:]
G|---2-------2---2--1---------1-------0-------0--------0-------0------------------:]
D|-----3-------3------3---------3-------2-------2--------2-------2----------------:]
A|----------------------3-----------3-----3----------3-----3----------------------:]
E|-1-----1-------1--1-----1-------------------------------------------------------:]

[ Tab from: http://www.guitartabs.cc/tabs/j/jem/flying_high_tab.html ]
Pre-Chorus: The song kinda morphs into the pre chorus at the C chord at the end of the
 verse so I'm just gonna start from the end of the verse where it says "So close to giving in".
 
   Fm              C                              Am
   So close........in                             Feels so nice.....
e|-------1---------------0------------------------------0---------------0---------]
B|---------1-----1-1-------1-----1--1-----1----1--1-------1-----1-1-------1-----1-]
G|-1---------1-------0-------0--------0-------------2-------2-------2-------2-----]
D|---3---------3-------2-------2--------2-------------2-------2-------2-------2---]
A|-----3-----------3-----3----------3-----3----2--0-----0---------0-----0---------]
E|-1-----1------------------------------------------------------------------------]

  A?               Fmaj7
  spend the night...no...           no...
e|-------0---------------0--------------------------------------------]
B|-1-------1-----1-1-------1-----1--1---------------------------------]
G|---2-------2-------2-------2---------(let ring)---------------------]
D|-----2-------2-------3-------3--------------------------------------]
A|-----------------1-----1----------1---------------------------------]
E|-2-----2------------------------------------------------------------]


Chorus: X2

  C                                 Am               A?              F     
  But I'm                flying so high               high off the ground 
e|:-------0---------------------------------0---------------0---------------1----------
B|:-1-------1-----1-1--------1---1--1-1-------1-----1-1-------1-----1-1-------1-----1--
G|:---0-------0-------0-----------------2-------2-------2-------2-------2-------2------
D|:-----2-------2-------2-----------------2-------2-------2-------2-------3-------3----
A|:-3-----3---------3-----3--3---2--0-0-----0------------------------------------------
E|:---------------------------------------------------2-----2---------1-----1----------

   Fm                    (play this part 2nd time around)
   When you're around.
e|-------4------------:]---------0-------------------------]
B|-1-------1-----1----:]-1---------1-----1-1---------------]
G|---1-------1--------:]---0---------0--------(let ring)---]
D|-----3-------3------:]-----2---------2-------------------]
A|-3------------------:]-3-------3---------3---------------]
E|-------1------------:]-----------------------------------]



Verse X2

Pre-Chorus 

Chorus





Bridge: this is the part where she goes "ohhhh oh oh" and stuff.

  Am                               Em                   Em7
  Back to Earth...                 No such thing......
e|:------0---------------0---------------0-----------------------0----------:]
B|:1-------1-----1-1-------1-----1-0-------0-----0-0-----3---------0-----0--:]
G|:--2-------2-------2-------2-------0-------0-------0-------0-------0------:] 2 Times
D|:----2-------2-------2-------2-------2-------2-------2---------------2----:]
A|:0-----0---------0-----0-------------------------------------2------------:]
E|:--------------------------------0-----0---------0-----0-------0----------:]


   Dm                                Am
  But Ohhhhhhh....                  I feel so alive....
e|-1-----1---------1-----1-----------------0---------------0---------------]
B|---3-----3-----3---3-----3-----3---1-------1-----1-1-------1-----1-------]
G|-----2-----2---------2-----2---------2-------2-------2-------2-----------]
D|-0-----------0---0-----------0---------2-------2-------2-------2---------]
A|-----------------------------------0-----0---------0-----0---------------]
E|-------------------------------------------------------------------------]

   Dm                              G               E
   And Ohhhh oh ohh... just wanna hold you, hold you so tight
e|-1-----1---------1-----1---------------3-----------------0---------------]
B|---3-----3-----3---3-----3-----3---------3-----3-0---------0-----0-------]
G|-----2-----2---------2-----2-----4---------4-------1---------1-----------]
D|-0-----------0---------------0-----5---------5-------2---------2---------]
A|-------------------------------------5-----------------2-----------------]
E|---------------------------------3-----3---------0-------0---------------]


ChorusX2


(end the song with a C chord and let it ring out and fade.)


I hope you like this, It took me a while. My email is quagland@sbcglobal.net which is also my 
yahoo messenger id and my aim id is FinNgErTaPpEr. Well, That's my mommma.
Comments